Играется полностью теппингом.

     л л п  л л п  л л п  л л п  л л п ... и т.д.                   
E----------------|
B||------14--------------------------14--|
G||------14-----16-----14-----16-----14--|
D||----7------7-16---7-14---7-16---7-----|
A----------------|
E||--5------5------5------5------5-------|


                                       
--------------------------------------|
------14------------------------------|
------14-----16-----14-----14-----14--|
----7------7-16---7-14---7-14---9-14--|
--------------------------------------|
--5------5------5------5------9-------|


                                            
-------------------------------------------|
-------14------------------------------14--|
----11-14---11-16---11-14---11-16---11-14--|
---------------16------14------16----------|
--9-------9-------9-------9-------9--------|
-------------------------------------------|



------------------------------------------|
-------14---------------------------------|
----11-14---11-16---11-14---11-14---9-14--|
---------------16------14------14-----14--|
--9-------9-------9-------9-------7-------|
------------------------------------------|



-----------------------------------------------------------------|
------14--------------------------14--|------14------------------------------|
------14-----16-----14-----16-----14--|------14-----16-----14-----14-----14--|
----7------7-16---7-14---7-16---7-----|----7------7-16---7-14---7-14---9-14--|
-----------------------------------------------------------------|
--5------5------5------5------5-------|--5------5------5------5------9-------|



-------------------------------------------|
-------14------------------------------14--|
----11-14---11-16---11-14---11-16---11-14--|
---------------16------14------16----------|
--9-------9-------9-------9-------9--------|
-------------------------------------------|



------------------------------------------|
-------14---------------------------------|
----11-14---11-16---11-14---11-14---9-14--|
---------------16------14------14-----14--|
--9-------9-------9-------9-------7-------|
------------------------------------------|



---------------------------12---------|------14-----14-----12-----12-----12--|
------14------------14-----12-----14--|------14-----14-----12-----12-----12--|
----7-14---7-16---7-14---7------7-14--|----9------9------9------9------9-----|
-------------16--------------------------------------------------|
--5------5------5------5------5-------|--7------7------7------7------7-------|
-----------------------------------------------------------------|



------12--------------------------12--|
------12-----14------------14-----12--|
----7------7-14---7-16---7-14---7-----|
--------------------16----------------|
--5------5------5------5------5-------|
--------------------------------------|



------14-----14-----16-----16-----16------|
------14-----14---------------------------|
----9------9------9-16---9-16---9-16------|
------------------------------------------|
--7------7------7------7------7-----------|
------------------------------------------|



--------17-------17-------19-------19-------21--|
--------17-------17-----------------------------|
-----14-------14-------14-19----14-19----14-21--|
------------------------------------------------|
--12-------12-------12-------12-------12--------|
------------------------------------------------|



--------14-------14-----15-----15-----15--|
--------14-------14-----15-----15-----15--|
-----12-------12------9------9------9-----|
------------------------------------------|
--10-------10-------7------7------7-------|
------------------------------------------|



--------17-------17-------19-------19-------17--|
--------17-------17-------------------------17--|
-----14-------14-------14-19----14-19----14-----|
------------------------------------------------|
--12-------12-------12-------12-------12--------|
------------------------------------------------|



--------14-------14-----15-----15-----15--|
--------14-------14-----15-----15-----15--|
-----12-------12------9------9------9-----|
------------------------------------------|
--10-------10-------7------7------7-------|
------------------------------------------|



--------17-------17-------19-------19-------21--|
--------17-------17-----------------------------|
-----14-------14-------14-19----14-19----14-21--|
------------------------------------------------|
--12-------12-------12-------12-------12--------|
------------------------------------------------|



--------14-------14-----15-----15-----15--|
--------14-------14-----15-----15-----15--|
-----12-------12------9------9------9-----|
------------------------------------------|
--10-------10-------7------7------7-------|
------------------------------------------|



------15-----17-----20-----22-----17--|------20-----20-----17-----17-----17--|
------15-----17-----20-----22-----17--|------20-----20-----17-----17-----17--|
----9------9------9------9------9-----|----9------9------9------9------9-----|
-----------------------------------------------------------------|
--8------8------8------8------8-------|--8------8------8------8------8-------|
-----------------------------------------------------------------|



------------------------------------------------|
--------17-------17-------15-------15-------15--|
-----12-17----12-17----12-16----12-16----12-16--|
------------------------------------------------|
--10-------10-------10-------10-------10--------|
------------------------------------------------|



--------------------------------------|
------14-----14-----12-----12-----12--|
----9-14---9-14---9-13---9-13---9-13--|
--------------------------------------|
--7------7------7------7------7-------|
--------------------------------------|



------------------------------------------------|
--------17-------17-------15-------15-------15--|
-----12-17----12-17----12-16----12-16----12-16--|
------------------------------------------------|
--10-------10-------10-------10-------10--------|
------------------------------------------------|



------------------------------------------||
------14-----14-----12-----12-------------||
----9-14---9-14---9-13---9-13---9-14------||
----------------------------------14------||
--7------7------7------7------7-----------||
------------------------------------------||


Текст, аккорды и табулатура для песни "Day At The Beach", исполняет "Joe Satriani".
Используемые в песне аккорды можно найти в разделе Как брать аккорды. Аккорды для шестиструнной гитары. Другие песни можно найти на нашем сайте, воспользовавшись алфавитным указателем вверху страницы.


 
Ошибка в тексте? Выделите ошибку и нажмите Ctrl+Enter