E----------------------2----------------||
B----------------------2-----5----------||
G||*------------4-4-4---------------4-4-4--4-x-----x-4---4--3--*||
D||*--4-5-4-----2-2-2-4-------4-----2-2-2-|--4-4-4-----2-------------2--2--*||
A||---4-4-4-2-0-------4h5h4h2-4-2-0-------|--4-5-4-2-0----------------------||
E------------------------3-----2--------||


                                              
---------------------------------------------|
---------------------------------------------|
-----11-11-11----11-11-11---11-11-11---9-9-9-|
-----11-11-11----11-11-11---9--9--9----9-9-9-|
---------------------------------------------|
--10----------10----------9----------9-------|


                                                                      
----------12---------------------------------------------|
--------------12-----------------------------------------|
----9-9-9-----------9-9-9---8-8-8-|----6-6-6---6-6-6---4-4-4---4-4-4-|
----9-9-9-----------7-7-7---7-7-7-|----5-5-5---5-5-5---4-4-4---4-4-4-|
---------------------------------------------------------|
--8--------------7--------7-------|--5-------5-------3-------3-------|


                                                      
-----------------------------------------|
----3-3---3-3---2-2---2-2----------------|
----4-4---4-4---3-3---3-3-|----4-4---4-4---3-3---3-3-|
--------------------------|----5-5---5-5---4-4---4-4-|
-----------------------------------------|
--2-----2-----2-----2-----|--2-----2-----2-----2-----|


                                                                        
-------------------------------------------2---------------|
-------------------------------------------2-----5---------|
------------4-4-4---------------4-4-4--4-x-----x-4---4--3--|
--4-5-4-----2-2-2-4-------4-----2-2-2-|--4-4-4-----2-------------2--2--|
--4-4-4-2-0-------4h5h4h2-4-2-0-------|--4-5-4-2-0---------------------|
---------------------------------------------3-----2-------|


                                                                        
-------------------------------------------2---------------|
-------------------------------------------2-----5---------|
------------4-4-4---------------4-4-4--4-x-----x-4---4--3--|
--4-5-4-----2-2-2-4-------4-----2-2-2-|--4-4-4-----2-------------2--2--|
--4-4-4-2-0-------4h5h4h2-4-2-0-------|--4-5-4-2-0---------------------|
---------------------------------------------3-----2-------|


                                              
---------------------------------------------|
---------------------------------------------|
-----11-11-11----11-11-11---11-11-11---9-9-9-|
-----11-11-11----11-11-11---9--9--9----9-9-9-|
---------------------------------------------|
--10----------10----------9----------9-------|


                                                                      
----------12---------------------------------------------|
--------------12-----------------------------------------|
----9-9-9-----------9-9-9---8-8-8-|----6-6-6---6-6-6---4-4-4---4-4-4-|
----9-9-9-----------7-7-7---7-7-7-|----5-5-5---5-5-5---4-4-4---4-4-4-|
---------------------------------------------------------|
--8---------------8/------7-------|--5-------5-------3-------3-------|


                                                      
-----------------------------------------|
----3-3---3-3---2-2---2-2----------------|
----4-4---4-4---3-3---3-3-|----4-4---4-4---3-3---3-3-|
--------------------------|----5-5---5-5---4-4---4-4-|
-----------------------------------------|
--2-----2-----2-----2-----|--2-----2-----2-----2-----|


                                                                      
---------------------------------------------------------|
----12-12---12-12---11-11---11-11------------------------|
----12-12---12-12---11-11---11-11-|----12-12---12-12---11-11---11-11-|
----------------------------------|----12-12---12-12---11-11---11-11-|
----------7---------------7-------|----------7---------------7-------|
--0---------------0---------------|--0---------------0---------------|


                                                                      
---------------------------------------------------------|
----12-12---12-12---11-11---11-11------------------------|
----12-12---12-12---11-11---11-11-|----12-12---12-12---11-11---11-11-|
----------------------------------|----9--9----9--9----11-11---11-11-|
--9-------9-------9-------9-------|--9-------9-------9-------9-------|
---------------------------------------------------------|


                                                                      
---------------------------------------------------------|
----12-12---12-12---11-11---11-11------------------------|
----12-12---12-12---11-11---11-11-|----12-12---12-12---11-11---11-11-|
----------------------------------|----12-12---12-12---11-11---11-11-|
----------7---------------7-------|----------7---------------7-------|
--0---------------0---------------|--0---------------0---------------|


                                                                        
-----------------------------------------------------------|
----12-12---12-12---11-11---11-11-|-----14-14----14-14----12-12----12--|
----12-12---12-12---11-11---11-11-|-----14-14----14-14----12-12----12--|
-----------------------------------------------------------|
--9-------9-------9-------9-------|--10-------10-------10-------10-----|
-----------------------------------------------------------|


                                       
--------------------------------------|
--------------------------------------|
------------4-4-4---------------4-4-4-|
--4-5-4-----2-2-2-4-------4-----2-2-2-|
--4-4-4-2-0-------4h5h4h2-4-2-0-------|
--------------------------------------|


                                            
-------------------------------------------|
-------------------------------------------|
--------------4-----9----------------------|
--4-4-4-----2-----7-------7-----5-----4r4--|
--4-5-4-2-0-----5-------5-----2-----4-4----|
----------------------3-----0-----2--------|


                                       
--------------------------------------|
--------------------------------------|
------------4-4-4---------------4-4-4-|
--4-5-4-----2-2-2-4-------4-----2-2-2-|
--4-4-4-2-0-------4h5h4h2-4-2-0-------|
--------------------------------------|


                                                                         
------------------------------------------------------------|
----------------------------------------------3-------------|
--------------4-----9----------------------6-----6----------|
--4-4-4-----2-----7-------7-----5-----4r4--|--------7-----------7-------|
--4-5-4-2-0-----5-------5-----2-----4-4----|-----5-----------------5----|
----------------------3-----0-----2--------|--3-------------------------|


                                                        
-----------------------------------7------||
--------------5-----------------7---------||
-----------8-----8-----------9------------||
--------9-----------9-------|--------11---------------||
-----7-----------------7----|-----9-------------------||
--5-------------------------|--7----------------------||


Текст, аккорды и табулатура для песни "Brother John", исполняет "Joe Satriani".
Используемые в песне аккорды можно найти в разделе Как брать аккорды. Аккорды для шестиструнной гитары. Другие песни можно найти на нашем сайте, воспользовавшись алфавитным указателем вверху страницы.


 
Ошибка в тексте? Выделите ошибку и нажмите Ctrl+Enter