Repeat 3 times
------------------------------------------------
------5----------5-----------4-----------2------
----8---8------8---8-------6---6-------4---4----
--9------9---9-------9---6-------6---4-------4--
------------------------------------------------
-7---------7-----------0-----------2------------

----------------------------------------------------------------------
-------2-----------4-----------2-----------2--------------------------
-----4---4-------6---6-------4---4-------3---3------------------------
---4-------4---6-------6---4-------4---4-------4----------------------
----------------------------------------------------------------------
-4-----------0-----------2-----------2--------------------------------

END MAIN RHYTHM

w/main rhythm                 {a.h}                              
----------------------------------------------------------------------
--4---5--5/7~~~~~-7/9---7---5--4-----5--------------------------------
----------------------------------------4/6~~~~~-----4---6--/8--/9---
----------------------------------------------------------------------
----------------------------------------------------------------------
----------------------------------------------------------------------

                  { p.m.}    {s.h}  { p.m.}               {p.m}
----------------------------------------------------------------------
---------------------------------------------------------------4--5--7
-8---6------------------------4~~~----------/6~~---/86~~~---4--------
--------4~~~~~~----4--4--------------4--4-----------------------------
----------------------------------------------------------------------
----------------------------------------------------------------------

    p        p   
------------------------------------------7--7--------9---9----9--11--
7/9--754~~~~2-------------4--5--5/7--/9------/11~~~---12--12--------
----------------/4~~~~~-----------------------------------------------
----------------------------------------------------------------------
----------------------------------------------------------------------
----------------------------------------------------------------------

              full         1/2 p        1/2 1/2     1/4   full
-/14--11-------------------18^--16------18^-^------16^---19^----19----
----------14--14^--14~~~------------19----------19--------------------
----------------------------------------------------------------------
----------------------------------------------------------------------
----------------------------------------------------------------------
----------------------------------------------------------------------


 full   w/bar          p    p  p                 p                 full
--------------------16----15-14-131211---14--12-11-----------19-----
-17^---17~~~----x


Текст, аккорды и табулатура для песни "Always With Me Always With You", исполняет "Joe Satriani".
Используемые в песне аккорды можно найти в разделе Как брать аккорды. Аккорды для шестиструнной гитары. Другие песни можно найти на нашем сайте, воспользовавшись алфавитным указателем вверху страницы.


 
Ошибка в тексте? Выделите ошибку и нажмите Ctrl+Enter