#----------------------------------PLEASE NOTE--------------------------------#
#This file is the author's own work and represents their interpretation of the#
#song. You may only use this file for private study, scholarship, or research.#
#-----------------------------------------------------------------------------#
#-- File created with Instab - http://www.pconline.com/~smcarey/instab.html --#
#-----------------------------------------------------------------------------#

Author/Artist: Mark Greaney for JJ72
Title: Snow
Album: JJ72
Transcribed by: Joe Siddons
Email: [email protected]

[email protected]-------------|
---------3-1-----0-----------3-1-----0-------------3-1-----0------------------|
-------0-------2-----------0-------2-------------0-------2--------------------|
-----2-------3-----------2-------3-------------2-------3----------------------|
---3-------------------3---------------------3--------------------------------|
------------------------------------------------------------------------------|
 Intro and Verse, play 9 times

-1-1-1-1-1-1-1-1--5-5-5-5-5-5-5-5---------------------------------------------|
-1-1-1-1-1-1-1-1--6-6-6-6-6-6-6-6---------------------------------------------|
-2-2-2-2-2-2-2-2--7-7p5-5h7-7p5-5---------------------------------------------|
-3-3-3-3-3-3-3-3--7-7p5-5h7-7p5-5---------------------------------------------|
-3-3-3-3-3-3-3-3--5-5-5-5-5-5-5-5---------------------------------------------|
-1-1-1-1-1-1-1-1--------------------------------------------------------------|
 Chorus (Why wont it snow, like they said it would..) play four times

---------------------------------------------------------------------1--------|
---------------------------------------------------------------------1--------|
-5-5/7-7/9-9-----------5-5/7-7/9-9-----------5-5/7-7/9-9/10-10-10----2--------|
-------------3-3/4/5-5-------------3-3/4/5-5-------------------------3--------|
-3-3/5-5/7-7-3-3/4/5-5-3-3/5-5/7-7-3-3/4/5-5-3-3/5-5/7-7/8--8--8-----3--------|
-------------1-1/2/3-3-------------1-1/2/3-3-------------------------1--------|
 Middle (the heavy octave solo thingy)                        Back to chorus

------------------------------------------------------------------------------|
------------------------------------------------------------------------------|
------------------------------------------------------------------------------|
------------------------------------------------------------------------------|
------------------------------------------------------------------------------|
------------------------------------------------------------------------------|


Текст, аккорды и табулатура для песни "Snow", исполняет "Jj72".
Используемые в песне аккорды можно найти в разделе Как брать аккорды. Аккорды для шестиструнной гитары. Другие песни можно найти на нашем сайте, воспользовавшись алфавитным указателем вверху страницы.


 
Ошибка в тексте? Выделите ошибку и нажмите Ctrl+Enter