JJ72 by gerry

As most of you know, i am the fan to talk to:

OICHE MHAITH
If you have any queries or want a chat, got any info
or any good pictures, mp3's or pictures(hilary) add
me to ur messenger or e-mail me:
--------------i_am_jj72@hotmail.com------------------

Beautiful tune, goes something like this:
__________________________________________________
INTRO
e--------------------------------------------------
B--------------------------------------------------
G-4---4---4----4----4---4---4----5----4----4-------
D---5---5---5-----5---5---5---5-----5----4----4----
A--------------------------------------------------
E--------------------------------------------------

e--------------------------------------------------
B--------------------------------------------------
G-4---4---4----4----4---5---4----4----4----4----4--
D---4---4---4-----4---4---4---2----2----2----2----2
A--------------------------------------------------
E--------------------------------------------------

e--------------------------------------------------
B--------------------------------------------------
G-4---4----4---4----4---4---4---4----4---4---------
D---2---2----4----4---4---4---4---4----4---4-------    
A--------------------------------------------------
E--------------------------------------------------

Towards the end of the intro, guitar two plays:
G---4--2--0---------
D------------4--4---
____________________________________________________
VERSES
.....Similar 2 intro, except does not move up
from the 4th fret to the 5th fret on the G string...
Listen to it. Also Mark plays the end bit, instead of
playing the final---4---4----4----4---
                 -----4---4----4------play:
e-----------------
B-----------------
G---4--/2--0------
D---4---4----4--4-  
A-----------------
E-----------------
_____________________________________________________
CHORUS
The chorus is very simple, the drums and bass are the 
dominant sound, guitar is simply the same tune as vocals:

d-14--12--12--12--10--9--9--10--9-9-9--7--5--5 * 2

It actually sounds better to play the whole chorus on the
G string if you are using an acoustic. Instead of starting 
on the 5th fret of the B string, start on the 9th fret of
G string
______________________________________________________
INTERLUDE
This is the part in the song where the strong hand drums
beat. I haven't put the correct number of times you 
strike the string right, because its simple to work out
by ear, so heres the basics. Guitar is very feint:

e--------------------------------------------------------
B--------------------------------------------------------
G--------------------------------------------------------
D-5-5-5-5-5/7/5-4-4-4-4-4-4/5/4-2-2-2-2-2-2-0------------   
A----------------------------------------------7-7-7-7-7-
E--------------------------------------------------------

e--------------------------------------------------------
B--------------------------------------------------------
G-12-12-12-12-12h14-12-12h14-12h14-12-11-11-11-11-11-11--
D--------------------------------------------------------  
A--------------------------------------------------------
E--------------------------------------------------------

e--------------------------------------------------------
B--------------------------------------------------------
G-11h12-11-11h12-11h12-11-9-9-9-9-9-9/11-12-12-14-12-----
D--------------------------------------------------------  
A--------------------------------------------------------
E--------------------------------------------------------

OUTRO

e-----7(echo)~~~---15(clean)


Текст, аккорды и табулатура для песни "Oiche Mhaith", исполняет "Jj72".
Используемые в песне аккорды можно найти в разделе Как брать аккорды. Аккорды для шестиструнной гитары. Другие песни можно найти на нашем сайте, воспользовавшись алфавитным указателем вверху страницы.


 
Ошибка в тексте? Выделите ошибку и нажмите Ctrl+Enter