Tabbed by gerry

If you have any corrections to make on this tab please e-mail me. Also, 
please e-mail any pictures or thoughts you have on the band....esp Hilary
[email protected]***************************

7TH Wave, by jj72
VERSE 1 

e||-------------------------------------------------------------------|
B||-------------------------------------------------------------------|
G||-5--5--5---5--5--5--5---5--5--5---5--5--5--5-----------------------|
D||-5--5--5---5--5--5--5---5--5--5---5--5--5--5-----------------------|
A||-3--3--3---3--3--3--3---2--2--2---3--3--3--3-----------------------|
E||-------------------------------------------------------------------|


e||-------------------------------------------------------------------------|
B||-------------------------------------------------------------------------|
G||-12-12-12--7--11-11-11-11-11-11-11---14-14-14--16--14--12-12-12--7-7-7-7-|
D||-12-12-12--7--11-11-11-11-11-11-11---14-14-14--16--14--12-12-12--7-7-7-7-|
A||-10-10-10--5---9--9--9--9--9--9--9---12-12-12--14--12--10-10-10--5-5-5-5-|
E||-------------------------------------------------------------------------|


e||---------------------------------------------------------------------------|
B||---------------------------------------------------------------------------|
G||-12-12-12-12-12----------------------------11-11-11-11-11------------------|
D||-12-12-12-12-12--10-10-10-10-10-10-10-10---11-11-11-11-11--9-9-9-9-9-9-9-9-|
A||-10-10-10-10-10--10-10-10-10-10-10-10-10----9--9--9--9--9--9-9-9-9-9-9-9-9-|
E||------------------8--8--8--8--8--8--8--8-------------------7-7-7-7-7-7-7-7-|


e||------------------------------------------------------------------------|
B||------------------------------------------------------------------------|
G||-16-16-16-16-16--17-17-17-17-17-17----11-11-11-11-11--12-12-12-12-12-12-|
D||-16-16-16-16-16--17-17-17-17-17-17----11-11-11-11-11--12-12-12-12-12-12-|
A||-14-14-14-14-14--15-15-15-15-15-15-----9--9--9--9--9--10-10-10-10-10-10-|
E||------------------------------------------------------------------------|



e||-----------------------------------------------------------------------------------|
B||-----------------------------------------------------------------------------------|
G||-14--12--11--12--12---16--18--14--16--16---14--12--11--12--12---16--18--14--16--16-|
D||-14--12--11--12--12---16--18--14--16--16---14--12--11--12--12---16--18--14--16--16-|
A||-12--10---9--10--10---14--16--12--14--14---12--10---9--10--10---14--16--12--14--14-|
E||-----------------------------------------------------------------------------------|


e||-----------------------------------------------------------------------|
B||-----------------------------------------------------------------------|
G||-16--18--14--16--16---11-11-11-11-11-11-11-11--12-12-12-12-12-12-12-12-|
D||-16--18--14--16--16---11-11-11-11-11-11-11-11--12-12-12-12-12-12-12-12-|
A||-14--16--12--14--14----9--9--9--9--9--9--9--9--10-10-10-10-10-10-10-10-|
E||-----------------------------------------------------------------------|

e||-----------------------------------------------------------------------|
B||-----------------------------------------------------------------------|
G||-14-14-14-14-14-14-14-14--16-16-16-16-16-16-16-16----------------------|
D||-14-14-14-14-14-14-14-14--16-16-16-16-16-16-16-16----------------------|
A||-12-12-12-12-12-12-12-12--14-14-14-14-14-14-14-14----------------------|
E||-----------------------------------------------------------------------|


Текст, аккорды и табулатура для песни "7th Wave", исполняет "Jj72".
Используемые в песне аккорды можно найти в разделе Как брать аккорды. Аккорды для шестиструнной гитары. Другие песни можно найти на нашем сайте, воспользовавшись алфавитным указателем вверху страницы.


 
Ошибка в тексте? Выделите ошибку и нажмите Ctrl+Enter