Jimmy Eat World
Sweetness
Tabbed By Art
Dropped D Tuning

Intro
e|---------------------------------|
B|---------------------------------|
G|-999999999999999999999999999-----|
D|-xxxxxxxxxxxxxxxxxxxxxxxxxxx-----|
A|-777777777777777777777777777-----|
D|-000000000000000000000000000-----|

Clean Part

e|-8--8--8--8--8--8--8--8--8--8--8--8--8--8--8--8--8--8---|
B|-8--8--8--8--8--8--8--8--8--8--8--8--8--8--8--8--8--8---|
G|10-10-10-10-10-10-10-10-10-10-10-10-10-10-10-10-10-10---|
D|10-10-10-10-10-10-10-10-10-10-10-10-10-10-10-10-10-10---|
A|-8--8--8--8--8--8--8--8--8--8--8--8--8--8--8--8--8--8---|
D|--------------------------------------------------------|

Chorus
e|---------------------------------------------------------------|
B|---------------------------------------------------------------|
G|----------------------------------------------9999------9999---|
D|-88888888888888-101010101010101010101010-0000-xxxx-0000-xxxx---|
A|-88888888888888-101010101010101010101010-0000-7777-0000-7777---|
D|-88888888888888-101010101010101010101010-0000------0000--------|

e|---------------------------------------------------------------|
B|---------------------------------------------------------------|
G|---------------------------------------------------------------|
D|-88888888888888-10101010101010101010-3333333333333333333-------|
A|-88888888888888-10101010101010101010-3333333333333333333-------|
D|-88888888888888-10101010101010101010-3333333333333333333-------|

Interlude

e|-----------------------------------------------|
B|-----------------------------------------------|
G|-----------------------------------------------|
D|-5555555555-888888888-33333333333333333333-----|
A|-5555555555-888888888-33333333333333333333-----|
D|-5555555555-888888888-33333333333333333333-----|

Clean (2 guitar)
e|-8--8--8--8--8--8--8--8--8--8--8--8--8--8--8--8--8--8---|
B|-8--8--8--8--8--8--8--8--8--8--8--8--8--8--8--8--8--8---|
G|10-10-10-10-10-10-10-10-10-10-10-10-10-10-10-10-10-10---|
D|10-10-10-10-10-10-10-10-10-10-10-10-10-10-10-10-10-10---|
A|-8--8--8--8--8--8--8--8--8--8--8--8--8--8--8--8--8--8---|
D|--------------------------------------------------------|


e|----------------------------------------------------------|
B|----------------------------------------------------------|
G|----------------------------------------------------------|
D|-3333333333333333333333-5555555555-000000000000000000000--|
A|-3333333333333333333333-5555555555-000000000000000000000--|
D|-3333333333333333333333-5555555555-000000000000000000000--|


Chorus Again
and in the last part

e|---------------------------------------------------------|
B|---------------------------------------------------------|
G|---------------------------------------------------------|
D|-88888888888-101010101010101010-33333333333333333333-----|
A|-88888888888-101010101010101010-33333333333333333333-----|
D|-88888888888-101010101010101010-33333333333333333333-----|

end on

e|----|
B|----|
G|----|
D|-3~-|
A|-3~-|
D|-3~-|


Текст, аккорды и табулатура для песни "Sweetness", исполняет "Jimmy Eat World".
Используемые в песне аккорды можно найти в разделе Как брать аккорды. Аккорды для шестиструнной гитары. Другие песни можно найти на нашем сайте, воспользовавшись алфавитным указателем вверху страницы.


 
Ошибка в тексте? Выделите ошибку и нажмите Ctrl+Enter