Artist: Jimmy Eat World
Track: Salt Sweat Sugar
Album: Jimmy Eat World
Tabbed By Mark Brown E-mail [email protected]

Intro: 

Guitar 1 
e------------------------------------------------------------| 
B---0-0-----0-0-----0---0-0-----0-0-----0-----0-0-----0-0---0| 
G---4-6-----4-6-----4---4-6-----4-6-----4-----4-6-----4-6---4| 
D-4-----4-4-----4-4---0-----0-0-----0-0---4-4-----4-4-----4--| 
A-4-----4-4-----4-4---0-----0-0-----0-0---4-4-----4-4-----4--| 
D-4-----4-4-----4-4---0-----0-0-----0-0---4-4-----4-4-----4--| 

e---------------------------------| 
B---------------------------------| 
G-------------------------4-4-4-4-| 
D-7-7-7-7-7-7-7-7-0-0-0-0-4-4-4-4-| 
A-7-7-7-7-7-7-7-7-0-0-0-0-2-2-2-2-| 
D-7-7-7-7-7-7-7-7-0-0-0-0---------| 

Guitar 2 
e------------------------------------------------------------| 
B---0-0-----0-0-----0---0-0-----0-0-----0-----0-0-----0-0---0| 
G---4-6-----4-6-----4---4-6-----4-6-----4-----4-6-----4-6---4| 
D-4-----4-4-----4-4---0-----0-0-----0-0---4-4-----4-4-----4--| 
A-4-----4-4-----4-4---0-----0-0-----0-0---4-4-----4-4-----4--| 
D-4-----4-4-----4-4---0-----0-0-----0-0---4-4-----4-4-----4--| 

e---------------------------------| 
B-0-0-0-0-0-0-0-0-0-0-0-0-0-0-0-0-| 
G-4-4-4-4-4-4-4-4-4-4-4-4-4-4-4-4-| 
D---------------------------------| 
A---------------------------------| 
D---------------------------------| 
  

Verse: 
Guitar 1 
e----------------------------------------------------------------| 
B----------------------------------------------------------------| 
G----------------------------------------------------------------| 
D-4-4-4-4-4-4-4-4-4-4-4-4-4-4-4-4-0-0-0-0-0-0-0-0-4-4-4-4-4-4-4-4| 
A-4-4-4-4-4-4-4-4-4-4-4-4-4-4-4-4-0-0-0-0-0-0-0-0-2-2-2-2-2-2-2-2| 
D-4-4-4-4-4-4-4-4-4-4-4-4-4-4-4-4-0-0-0-0-0-0-0-0----------------| 
  |________________________palm-muted____________________________| 

last time 
e---------------------------------------------------------------| 
B---------------------------------------------------------------|
G-------------------------------------------------4---4---4---4-| 
D-4-4-4-4-4-4-4-4-4-4-4-4-4-4-4-4-0-0-0-0-0-0-0-0-x---x---x---x-| 
A-4-4-4-4-4-4-4-4-4-4-4-4-4-4-4-4-0-0-0-0-0-0-0-0-2---2---2---2-| 
D-4-4-4-4-4-4-4-4-4-4-4-4-4-4-4-4-0-0-0-0-0-0-0-0---------------| 
  |_________________palm-muted___________________| 

Guitar 2 
e----------------------------------------------------------------| 
B----------------------------------------------------------------| 
G----------------------------------------------------------------| 
D-4-4-4-4-4-4-4-4-4-4-4-4-4-4-4-4-7-7-7-7-7-7-7-7-4-4-4-4-4-4-4-4| 
A-4-4-4-4-4-4-4-4-4-4-4-4-4-4-4-4-5-5-5-5-5-5-5-5-2-2-2-2-2-2-2-2| 
D-4-4-4-4-4-4-4-4-4-4-4-4-4-4-4-4--------------------------------| 
  |________________________palm-muted____________________________ 

e--------------------------------------------------------------| 
B--------------------------------------------------------------| 
G--------------------------------------------------------------| 
D-4-4-4-4-4-4-4-4-4-4-4-4-4-4-4-4-0-0-0-0-0-0-0-0-----4------4-| 
A-4-4-4-4-4-4-4-4-4-4-4-4-4-4-4-4-0-0-0-0-0-0-0-0-0-0-2--0-0-2-| 
D-4-4-4-4-4-4-4-4-4-4-4-4-4-4-4-4-0-0-0-0-0-0-0-0--------------| 

Chorus: 
Guitar 1 
e------------------------------------------------------------| 
B---0-0-----0-0-----0---0-0-----0-0-----0-----0-0-----0-0---0|   
G---4-6-----4-6-----4---4-6-----4-6-----4-----4-6-----4-6---4| 
D-4-----4-4-----4-4---0-----0-0-----0-0---4-4-----4-4-----4--| 
A-4-----4-4-----4-4---0-----0-0-----0-0---4-4-----4-4-----4--| 
D-4-----4-4-----4-4---0-----0-0-----0-0---4-4-----4-4-----4--| 

e---------------------------------| 
B---------------------------------| 
G-------------------------4-4-4-4-| 
D-7-7-7-7-7-7-7-7-0-0-0-0-4-4-4-4-| 
A-7-7-7-7-7-7-7-7-0-0-0-0-2-2-2-2-| 
D-7-7-7-7-7-7-7-7-0-0-0-0---------| 

Guitar 2 
e------------------------------------------------------------| 
B---0-0-----0-0-----0---0-0-----0-0-----0-----0-0-----0-0---0| 
G---4-6-----4-6-----4---4-6-----4-6-----4-----4-6-----4-6---4| 
D-4-----4-4-----4-4---0-----0-0-----0-0---4-4-----4-4-----4--| 
A-4-----4-4-----4-4---0-----0-0-----0-0---4-4-----4-4-----4--| 
D-4-----4-4-----4-4---0-----0-0-----0-0---4-4-----4-4-----4--| 

e---------------------------------| 
B-0-0-0-0-0-0-0-0-0-0-0-0-0-0-0-0-| 
G-4-4-4-4-4-4-4-4-4-4-4-4-4-4-4-4-| 
D---------------------------------| 
A---------------------------------| 
D---------------------------------| 

Bridge: 
Guitar 1 
e----------------------------------------------------------------| 
B----------------------------------------------------------------| 
G---------------------------------2-2-2-2-2-2-2-2---------4-4-4-4| 
D-4-4-4-4-4-4-4-4-0-0-0-0-0-0-0-0-2-2-2-2-2-2-2-2-0-0-0-0-x-x-x-x| 
A-4-4-4-4-4-4-4-4-0-0-0-0-0-0-0-0-0-0-0-0-0-0-0-0-0-0-0-0-2-2-2-2| 
D-4-4-4-4-4-4-4-4-0-0-0-0-0-0-0-0-----------------0-0-0-0--------| 

Guitar 2 
e---------------------------------------------------------| 
B-----7------7------7------7------7------7------7------7--| 
G---------------------------------------------------------| 
D-4-4----4-4----4-4----4-4----4-4----4-4----4-4----4-4----| 
A---------------------------------------------------------| 
D---------------------------------------------------------| 

e---------------------------------| 
B---------------------------------| 
G-9-9-9-9-7-7-6-6-7-7-7-7---------| 
D-x-x-x-x-x-x-x-x-x-x-x-x-XXXXXXXX| 
A-7-7-7-7-5-5-4-4-5-5-5-5-XXXXXXXX| 
D-------------------------XXXXXXXX| 
  

Solo: 
Guitar 1 continue Bridge riff 

Guitar 2 
e-----------------------------------------------------------------| 
B---2-5-2-2---2----2------5-7-2------2--5-2-2---2-----------------| 
G-4---------4----4----44--------4--4----------4----4-4-4h6-4-4-6-6| 
D----------------------------------------------------------x-x-x-x| 
A----------------------------------------------------------2-2-4-4| 
D-----------------------------------------------------------------| 

Finish

e-----| 
B-----| 
G-----| 
D-4-4-| 
A-4-4-| 
D-4-4-| 
  
Order

Intro

Verse 

Chorus

Verse

Chorus

Bridge

Chorus

Finish 


Текст, аккорды и табулатура для песни "Salt Sweat Sugar", исполняет "Jimmy Eat World".
Используемые в песне аккорды можно найти в разделе Как брать аккорды. Аккорды для шестиструнной гитары. Другие песни можно найти на нашем сайте, воспользовавшись алфавитным указателем вверху страницы.


 
Ошибка в тексте? Выделите ошибку и нажмите Ctrl+Enter