ANDERSON MESA - Jimmy Eat World
Tabbed by Luc-E    [email protected]

Standard tuning 

Intro: 
----------------------------------- 
---9---9---9---9---10---10---7---7- 
-9---9---9---9---9----9----9---9--- 
----------------------------------- 
----------------------------------- 
----------------------------------- 

Verse: 
Guitar 1
----------------------------------------------------------------- 
----------------------------------------------------------------- 
-4-4-4-4-4-4-4-4-6-6-6-6-6-6-6-6--------------------------------- 
-4-4-4-4-4-4-4-4-6-6-6-6-6-6-6-6-2-2-2-2-2-2-2-2-2-2-2-2-2-2-2-2- 
-2-2-2-2-2-2-2-2-4-4-4-4-4-4-4-4-2-2-2-2-2-2-2-2-2-2-2-2-2-2-2-2- 
---------------------------------0-0-0-0-0-0-0-0-0-0-0-0-0-0-0-0- 

Guitar 2 
---------------------------------------------------------0-0-0--7- 
---------------------------------------------------------4^4^4^-5- 
---------------------------------1-1-1-12-2-2-24-4-4-4-4-------- 
------------------------------------------------------------------ 
------------------------------------------------------------------ 
------------------------------------------------------------------ 

Guitar 2
------(12)------(12)------(12)------(12)------(12)------(12)------(12)------(12)- 
-(12)------(12)------(12)------(12)------(12)------(12)------(12)------(12)------ 
--------------------------------------------------------------------------------- 
--------------------------------------------------------------------------------- 
--------------------------------------------------------------------------------- 
--------------------------------------------------------------------------------- 
  
Bridge:
-0-0-0-0-0-0-0-0-0-0-0-0-0-0-0-0- 
-0-0-0-0-0-0-0-0-0-0-0-0-0-0-0-0- 
-2-2-2-2-2-2-2-2-6-6-6-6-6-6-6-6- 
-4-4-4-4-4-4-4-4-7-7-7-7-7-7-7-7- 
-0-0-0-0-0-0-0-0-7-7-7-7-7-7-7-7- 
-2-2-2-2-2-2-2-2-5-5-5-5-5-5-5-5- 
  
Chorus 

Guitar 1 
----------------------------------------------------------------- 
----------------------------------------------------------------- 
-----------------6-6-6-6-6-6-6-6-4-4-4-4-4-4-4-4-4-4-4-4-4-4-4-4- 
-2-2-2-2-2-2-2-2-6-6-6-6-6-6-6-6-4-4-4-4-4-4-4-4-4-4-4-4-4-4-4-4- 
-2-2-2-2-2-2-2-2-4-4-4-4-4-4-4-4-2-2-2-2-2-2-2-2-2-2-2-2-2-2-2-2- 
-0-0-0-0-0-0-0-0------------------------------------------------- 

----------------------------------------------------------------- 
----------------------------------------------------------------- 
-----------------6-6-6-6-6-6-6-6-4-4-4-4-4-4-4-4-2-2-2-2-2-2-2-2- 
-2-2-2-2-2-2-2-2-6-6-6-6-6-6-6-6-4-4-4-4-4-4-4-4-2-2-2-2-2-2-2-2- 
-2-2-2-2-2-2-2-2-4-4-4-4-4-4-4-4-2-2-2-2-2-2-2-2-0-0-0-0-0-0-0-0- 
-0-0-0-0-0-0-0-0------------------------------------------------- 

Guitar 2 
----------------------------------------------------------------------------- 
----------------------------------------------------------------------------- 
-9-9-9-9-11-11-11-11-13-13-13-13-13-13-13-13-8-8-8-8-8-8-8-8-8-8-8-8-8-8-8-8- 
-x-x-x-x-x--x--x--x--x--x--x--x--x--x--x--x--x-x-x-x-x-x-x-x-x-x-x-x-x-x-x-x- 
-7-7-7-7-9--9--9--9--11-11-11-11-11-11-11-11-6-6-6-6-6-6-6-6-6-6-6-6-6-6-6-6- 
----------------------------------------------------------------------------- 

--------------------------------------------------------------------------------- 
--------------------------------------------------------------------------------- 
-9-9-9-9-11-11-11-11-13-13-13-13-13-13-13-13-8-8-8-8-8-8-8-8-9-9-9-9-11-11-11-11- 
-x-x-x-x-x--x--x--x--x--x--x--x--x--x--x--x--x-x-x-x-x-x-x-x-x-x-x-x-x--x--x--x-- 
-7-7-7-7-9--9--9--9--11-11-11-11-11-11-11-11-6-6-6-6-6-6-6-6-7-7-7-7-9--9--9--9-- 
--------------------------------------------------------------------------------- 
  
Bridge: 
-0-0-0-------------- 
-0-0-0-------------- 
-1-1-1--------7----- 
-2-2-2--4-----7----- 
-2-2-2--4-----5----- 
-0-0-0--2----------- 

Outro: 
Guitar 1 
-0------------------0--------0------------------0-------- 
-0-----0--0---------------0--0-----0--0---------------0-- 
-1-1h2------2-1h2------1--2--1-1h2------2-1h2------1--2-- 
-2----------------4----------2----------------4---------- 
-2---------------------------2--------------------------- 
-0---------------------------0--------------------------- 

Guitar 2 
---------------------------------------- 
---------------------------------------- 
-9-9-9-9-11-9-9-9-9-9-11-9--13--14--16-- 
-x-x-x-x-x--x-x-x-x-x-x-x---x---x---x--- 
-7-7-7-7/9-7-7-7-7-7/9-7--11--12--14-- 
-0------------0-------------0---0------- 

End on 
Guitar 2 
--- 
--- 
-9- 
-x- 
-7- 
-0-


Текст, аккорды и табулатура для песни "Anderson Mesa", исполняет "Jimmy Eat World".
Используемые в песне аккорды можно найти в разделе Как брать аккорды. Аккорды для шестиструнной гитары. Другие песни можно найти на нашем сайте, воспользовавшись алфавитным указателем вверху страницы.


 
Ошибка в тексте? Выделите ошибку и нажмите Ctrl+Enter