When You Die You're Dead - Jimmie's Chicken Shack
Bass tab
Tabbed by Asbestos Man ([email protected])

You don't need a 5er for this one, as you can see.
But Che uses one, so I put the B down. Sue me.

G|--------------------------------------------------------|
D|-----------4--4-4----------0-2---2-0--------------------|
A|-2*--2*-2*--------3--3-3-3-----------2------------------|
E|--------------------------------------------------------|
B|--------------------------------------------------------|
   *play this only when you start the riff

G|--------------------------------------------------------|
D|--------------------------------------------------------|
A|--------------------------------------------------------|
E|-0-0--0-0--0-0--0-0--12--------------------------------|
B|--------------------------------------------------------|

G|-----------4--4-4----------0-2---2-0--------------------|
D|-2*--2*-2*--------3--3-3-3-----------2------------------|
A|--------------------------------------------------------|
E|--------------------------------------------------------|
B|--------------------------------------------------------|
Play this a few times at the start of the last verse


PLEASE send feedback/corrections ([email protected])


Текст, аккорды и табулатура для песни "When You Die Youre Dead", исполняет "Jimmies Chicken Shack".
Используемые в песне аккорды можно найти в разделе Как брать аккорды. Аккорды для шестиструнной гитары. Другие песни можно найти на нашем сайте, воспользовавшись алфавитным указателем вверху страницы.


 
Ошибка в тексте? Выделите ошибку и нажмите Ctrl+Enter