This Is Not Hell - Jimmie's Chicken Shack
Bass tab
Tabbed by Asbestos Man ([email protected])

A 5-string is required, but you could probably fake it on a 4.

Main - During verse
G|--------------------------------------------------------|
D|-----------3--5-----------------------------------------|
A|-----5--3--------5--3-----------------------------------|
E|--3--------------------1-1------------------------------|
B|--------------------------------------------------------|


Chorus
G|--------------------------------------------------------|
D|--------------------------------------------------------|
A|--------------------------------------------------------|
E|-3-3-0-6--0-3-3-0-6--0-3-3-0-6--0-3---------------------|
B|--------------------------------------------------------|


Breakdown (alternate between riffs)
G|--------------------------------------------------------|
D|--------------------------------------------------------|
A|-2-2---2------------------------------------------------|
E|-----2-------2-2---2-----3-3---3-----0-0---0------------|
B|-----------------2-----------3-----------0--------------|

G|--------------------------------------------------------|
D|--------------------------------------------------------|
A|--------------------------------------------------------|
E|-3-3-3-3---0-0-0-0---3-3-3-3--0-0-0-0-------------------|
B|--------------------------------------------------------|


Ending
G|--------------------------------------------------------|
D|--------------------------------------------------------|
A|--------------------------------------------------------|
E|-3-3-3-3-3-3-0-0-0-0-0-0-3-3-3-3-3-3-0-0-0-0-0*-0*---2!-|
B|--------------------------------------------------------|
    * don't play these the second time
	! play this at that final guitar chord
	
PLEASE send feedback/corrections ([email protected])


Текст, аккорды и табулатура для песни "This Is Not Hell", исполняет "Jimmies Chicken Shack".
Используемые в песне аккорды можно найти в разделе Как брать аккорды. Аккорды для шестиструнной гитары. Другие песни можно найти на нашем сайте, воспользовавшись алфавитным указателем вверху страницы.


 
Ошибка в тексте? Выделите ошибку и нажмите Ctrl+Enter