Sitting with the Dog - Jimmie's Chicken Shack
Bass Tab
Tabbed by Asbestos Man ([email protected])

Oh dear. Help me please.

Intro
(this is the closest I've got. PLEASE send your version if
you've got one)
G|--------------------------------------------------------|
D|--------------------------------------------------------|
A|-------------0-0---3-5----------------------------------|
E|-3---3---3-3-----0--------------------------------------|
B|--------------------------------------------------------|


Next bit
G|---------------------------------------|-----------------|
D|---------------------------------------|-----------------|
A|---------------------------------------|-----------------|
E|-0-0--/12-12--0-0--/12-12--0-0--/12-12-|-----------------|
B|---------------------------------------|-----------------|


Play that, then play one of these in this order, then go back.
G|----------------|----------------------------------------|
D|----------------|----------------------------------------|
A|-10---10--9---9-|-10---10--9---9--8---8--7---7--6---6----|
E|----9-------8---|----9-------8------7------6------5------|
B|----------------|----------------------------------------|

G|----------------------------|----------------------------|
D|----------------------------|----------------------------|
A|-10---10----9-------8---8-8-|---------------0-0---3-5----|
E|----9---------8-------7-----|-3---3-----3-3-----0--------|
B|----------------7-----------|----------------------------|
                                         |--------------|
		PLEASE send in your version of this bit ^

This is where I kinda lose it. Help me!

PLEASE send feedback. I need the rest of this f***ing song.


Текст, аккорды и табулатура для песни "Sitting With The Dog", исполняет "Jimmies Chicken Shack".
Используемые в песне аккорды можно найти в разделе Как брать аккорды. Аккорды для шестиструнной гитары. Другие песни можно найти на нашем сайте, воспользовавшись алфавитным указателем вверху страницы.


 
Ошибка в тексте? Выделите ошибку и нажмите Ctrl+Enter