T1: nathan bonney, [email protected], jimmies chicken shack, silence again ,
 08/25/99 

 S1: this is another cool song form jcs's new album, it only took me a few
 minutes to tab this one, it sounds pretty close to the song but i might be
 wrong, any comment, corrections, e-mail me., 
 intro w/distortion 

 guitar 1 plays the b-string, the guitar 2 plays the other part 

 00:00 to 00:20 
 e.------------------------------------------------------------------------- 
 b.-3-3-3-2-2-2-3-3-3-2-2-2-3-3-3-2-2-2-3-3-3-2-2-2-3-3-3-2-2-2-3-3-3-2-2-2- guitar 1 
 g.-------------------------------------------------7-7-7--7----4-4-4--4---- 
 d.-------------------------------------------------7-7-7--7----4-4-4--4---- guitar 2 
 a.-------------------------------------------------5-5-5--5----2-2-2--2---- 
 E.-------------------------------------------------5-5-5--5----2-2-2--2---- 
 /---repeat-4-times--- 

 verse chorus 

 00:20 to 00:49 00:49 to 01:04 

 slight palm muting no palm muting 
 e.----------------------------- e.-------------------------------------------------- 
 b.----------------------------- b.-------------------------------------------------- 
 g.-7-7-7-7---4-4-4-4---3-3-3-3- g.--7-7-7-7---4-4-4-4---3-3-3-3---7-7-7-7---4-4-4-4- 
 d.-7-7-7-7---4-4-4-4---3-3-3-3- d.--7-7-7-7---4-4-4-4---3-3-3-3---7-7-7-7---4-4-4-4- 
 a.-5-5-5-5---2-2-2-2---1-1-1-1- a.--5-5-5-5---2-2-2-2---1-1-1-1---5-5-5-5---2-2-2-2- 
 E.-5-5-5-5---2-2-2-2---1-1-1-1- E.--5-5-5-5---2-2-2-2---1-1-1-1---5-5-5-5---2-2-2-2- 
 /------repeat-9-times------- /------repeat-twice--------- 


 (STILL CHORUS) 2 verse 

 01:04 to 01:17 01:17 to 01:46 

 slight palm muting 
 e.------------------------- e.----------------------------- 
 b.-3-3-3-2-2-2-3-3-3-2-2-2- b.----------------------------- 
 g.-7-7-7--7----4-4-4--4---- g.-7-7-7-7---4-4-4-4---3-3-3-3- 
 d.-7-7-7--7----4-4-4--4---- d.-7-7-7-7---4-4-4-4---3-3-3-3- 
 a.-5-5-5--5----2-2-2--2---- a.-5-5-5-5---2-2-2-2---1-1-1-1- 
 E.-5-5-5--5----2-2-2--2---- E.-5-5-5-5---2-2-2-2---1-1-1-1- 
 /----repeat-4-times----- /------repeat-8-times------- 

 solo 

 01:46 to 02:18 


 e.--------------------------------------------------------------------------------------------
 b.-3-3-3-2-2-2-3-3-3-2-2-2--------------------------------------------------------------------
 g.-7-7-7--7----4-4-4--4---9-9-9-7-7-7-7-9-9-9-11-11-11-12-12-12-11-11-11-9-9-9-11-11-11-12-12-
 d.-7-7-7--7----4-4-4--4-----------------------------------------------------------------------
 a.-5-5-5--5----2-2-2--2-----------------------------------------------------------------------
 E.-5-5-5--5----2-2-2--2-----------------------------------------------------------------------

 /----repeat-8-times-- guitar 2 

 bending starts 02:00 
 e.--------------------------------------------------------------------------------------------
 b.------------------------------12-12-12-14-14-14-15-15-14-12-14-15b16-16-16-16r15-14-14-12b13
 g.12-14-14-14-12-12-12-14-14-14---------------------------------------------------------------
 d.--------------------------------------------------------------------------------------------
 a.--------------------------------------------------------------------------------------------
 E.--------------------------------------------------------------------------------------------


 bending ends 02:05 02:14 
 e.------------------------------------------------------------------------------------
 P  b.-13-13-13-13r12-12-12-14-14-14-12-12-12---------------------------------------------
 A  g.----------------------------------------14-14-14-12-12-12-11-11-11-9-9-9-7-7-7-6-6-6
 U  d.------------------------------------------------------------------------------------
 S  a.------------------------------------------------------------------------------------
 E  E.------------------------------------------------------------------------------------


 chorus 

 02:15 02:18 02:18 to 02:42 
 e.------------- e.------------------------------- 
 b.------------- b.------------------------------- 
 g.-7-74-43-3- g.-7-7-7-7--4-4-4-4--3-3-3-3--4 h 
 d.-7-74-43-3- d.-7-7-7-7--4-4-4-4--3-3-3-3--4 o hold from 02:42 to 02:50 
 a.-5-52-21-1- a.-5-5-5-5--2-2-2-2--1-1-1-1--2 l 
 E.-5-52-21-1- E.-5-5-5-5--2-2-2-2--1-1-1-1--2 d 
 /-----repeat-10-times----- 

 outro 

 02:46 02:50 03:00
 e.--------------------------------------------------------------------------------
 b.--------------------------------------------------------------------------------
 g.-4-6-4-6-4-6/7--6-7-9-11-9-11-9-11/12--12p11vv-9p76-7-6-7-64vv----4-6-4-6-----
 a.--------------------------------------------------------------------------------
 d.--------------------------------------------------------------------------------
 E.--------------------------------------------------------------------------------

 **trills** **trills** **trills** (can hardly hear last 4 notes) 


 comment, corrections, e-mail me. transcribed by Nathan Bonney 


Текст, аккорды и табулатура для песни "Silence Again", исполняет "Jimmies Chicken Shack".
Используемые в песне аккорды можно найти в разделе Как брать аккорды. Аккорды для шестиструнной гитары. Другие песни можно найти на нашем сайте, воспользовавшись алфавитным указателем вверху страницы.


 
Ошибка в тексте? Выделите ошибку и нажмите Ctrl+Enter