SONG: Falling Out
BAND: Jimmie's Chicken Shack
ALBUM: Represent
Tabbed By: Aaron Shim

Drop-D Tuning
//Intro was a little confusing to tab cuz it sounded like there were 3 guitars recorded in it.
Didn't complete the acoustic part of intro yet but i will soon.
Plz make corrections if there are any errors Thnx

Intro *Little Chorus/Delay Effects Guitar 1
E|----------------------------------------------------|
B|----------------------------------------------------|
G|----------------------------------------------------|
D|-------6------2------2-------2------2------2------2-|
A|------------4------2-------2------2------2------2---|
D|-4-4-4----4------2-----0h2------2------2------2-----|

E|-----------------------------------------------------------------|
B|-----------------------------------------------------------------|
G|-----------------------------------------------------------------|
D|-----6------2------2--------2------2------2------2------2------2-| Repeat as much as u need
A|-----------------2--------2------2------2------2------2------2---|
D|-4-4----4-4----2------0h2------2------2------2------2------2-----|

E|----------------------|
B|----------------------|
G|----------------------|
D|-----6------2------4--| Repeat as much u need
A|----------------------|
D|-4-4----4-4----4-4----|

Intro *Acoustic* Guitar 2 (0:05)

E|----------------------------------------------------|
B|----------------------------------------------------|
G|-2p1-------------1h2---2/4---4/6---64---42---2p1--|
D|----------------------------------------------------|
A|----------------------------------------------------|
D|----------------------------------------------------|

Pre-Verse (1:05-1:17), (2:06-2:18)

E|-----------------------------------------------------------|
B|-----------------------------------------------------------|
G|-----------------------------------------------------------|
D|-6-6-6-6--2-2-2--4-4-4--7-7-7--6-6-6--2-2-2--4-4-4--x-x--x-|
A|-4-4-4-4--0-0-0--2-2-2--5-5-5--4-4-4--0-0-0--2-2-2--x-x--x-|
D|-4-4-4-4--0-0-0--2-2-2--5-5-5--4-4-4--0-0-0--2-2-2--x-x--x-|

E|------------------------------------------------------|
B|------------------------------------------------------|
G|------------------------------------------------------|
D|-6-6-6--2-2-2--4-4-4--7-7-7--6-6-6--2-2-2--4-4-4--x-x-|
A|-4-4-4--0-0-0--2-2-2--5-5-5--4-4-4--0-0-0--2-2-2--x-x-|
D|-4-4-4--0-0-0--2-2-2--5-5-5--4-4-4--0-0-0--2-2-2--x-x-|

Verse Guitar (1:18-1:43), (2:19-2:44)

E|---------------------------------------------------------|
B|---------------------------------------------------------|
G|-------------------------------------------4-4-4---------|
D|-6-6-6--2-2-2--4-4-4--7-7-7--6-6-6--2-2-2--4-4-4--x-x--x-| 3x
A|-4-4-4--0-0-0--2-2-2--5-5-5--4-4-4--0-0-0--2-2-2--x-x--x-|
D|-4-4-4--0-0-0--2-2-2--5-5-5--4-4-4--0-0-0--2-2-2--x-x--x-|

E|-------------------------------------------------|
B|-------------------------------------------------|
G|-------------------------------------------4-4-4-|
D|-6-6-6--2-2-2--4-4-4--7-7-7--6-6-6--2-2-2--4-4-4-|
A|-4-4-4--0-0-0--2-2-2--5-5-5--4-4-4--0-0-0--2-2-2-|
D|-4-4-4--0-0-0--2-2-2--5-5-5--4-4-4--0-0-0--2-2-2-|

1st Chorus (1:44-2:05)

E|---------------------------------------------|
B|---------------------------------------------|
G|---------------------------------------------|
D|-4--4--7---7-7--4--4--7---7-7--4--4--7---7-7-|
A|-4--4--7---7-7--4--4--7---7-7--4--4--7---7-7-|
D|-4--4--7---7-7--4--4--7---7-7--4--4--7---7-7-|

E|------------------------------|
B|------------------------------|
G|------------------------------|
D|-6-6-6-6--2-2-2--4-4-4--7-7-7-|
A|-4-4-4-4--0-0-0--2-2-2--5-5-5-|
D|-4-4-4-4--0-0-0--2-2-2--5-5-5-|


E|----------------------------------------|
B|----------------------------------------|
G|----------------------------------------|
D|-6--6--9---9-9--6--6--9---9-9--6--6--9--|
A|-4--4--7---7-7--4--4--7---7-7--4--4--7--|
D|-4--4--7---7-7--4--4--7---7-7--4--4--7--|

Pre-Verse (2:06-2:18)

Verse (2:19-2:44)

2nd Chorus (2:44-3:06)

E|----------------------------------------------|
B|----------------------------------------------|
G|----------------------------------------------|
D|-4--4--7---7-7--4--4--7---7-7--4--4--7---7-7--|
A|-4--4--7---7-7--4--4--7---7-7--4--4--7---7-7--|
D|-4--4--7---7-7--4--4--7---7-7--4--4--7---7-7--|

E|----------------------------------------|
B|----------------------------------------|
G|----------------------------------------|
D|-6--6--9---9-9--6--6--9---9-9--6--6--9--|
A|-4--4--7---7-7--4--4--7---7-7--4--4--7--|
D|-4--4--7---7-7--4--4--7---7-7--4--4--7--|

Bridge Guitar 1 (3:07-3:32)

E|-------------------------|
B|-------------------------|
G|-------------------------|8x
D|-6--6---4--6-6--4--2/4---|
A|-4--4---2--4-4--2--0/2---|
D|-4--4---2--4-4--2--0/2---|

Solo Guitar 2 (3:11-3:13)

E|------------------|
B|------------------|
G|-9-9-9-9-9-9-9-9--|
D|------------------|
A|------------------|
D|------------------|
  Volume Increasing

-Solo Guitar 2 (3:13-3:32)

E|----------------------------------------------------------------|
B|----------------------------------------------------------------|
G|-9-9-9-9-9-9-9-9-9-9----------11-9---11-11-11-11-11-11-11-11-11-|
D|---------------------11-11-11-----------------------------------|
A|----------------------------------------------------------------|
D|----------------------------------------------------------------|

E|----------------------------------------------7-9-7---------|
B|----------------9-10-9--9-9-9-9-9-9-9-9-------------9-10-9--|
G|----------------------------------------9-9-9---------------|
D|-12-12-12-12-12---------------------------------------------|
A|------------------------------------------------------------|
D|------------------------------------------------------------|

E|----------------------------------------------------------------|
B|-----------------------7~--------------------------9--10--9h10--|
G|-11-11-11-11-11-11-6~-----7~--7h96~--7-9-10-11~----------------|
D|----------------------------------------------------------------|
A|----------------------------------------------------------------|
D|----------------------------------------------------------------|

E|-9h10p9--9-12-9-----------------------------|
B|----------------9h10-7-7h95--5h7--9h107---|
G|--------------------------------------------|
D|--------------------------------------------|
A|--------------------------------------------|
D|--------------------------------------------|

3rd Chorus Guitar 1 (3:33-4:19)

E|----------------|
B|----------------|
G|----------------|
D|-4--4--7---7-7--|15x
A|-4--4--7---7-7--|
D|-4--4--7---7-7--|

3rd Chorus Guitar 2 (3:33-3:58)

E|---|--------------|
B|-7-|-9~-9~-7~-7~--|
G|---|--------------|
D|---|--------------|2x
A|---|--------------|
D|---|--------------|
Keep repeating the note on the 7th fret till 3:43 and 3:55,
join 3rd Chorus for Guitar 1 on 3:58.

Outro Guitar 1 (4:20-4:46)

E|---------------------------   |-----|
B|---------------------------   |-----|
G|---------------------------8x |-----|
D|-6--6----6--6---2/4--   |-7~~-|
A|-4--4----4--4---0/2--   |-5~~-|
D|-4--4----4--4---0/2--   |-5~~-|

Outro Solo Guitar 2

E|------------------     |-----------------|
B|----7~------------     |-----------------|
G|-6~----7~--7h96-- 3x  |-1--1---2--------|
D|------------------     |-------------7~~-|
A|------------------     |-------------5~~-|
D|------------------     |-------------5~~-|

the cool echo thing at end *with delay effects (4:45-)

E|-21------|
B|-----19--|
G|---------|
D|---------|
A|---------|
D|---------|


Текст, аккорды и табулатура для песни "Falling Out", исполняет "Jimmies Chicken Shack".
Используемые в песне аккорды можно найти в разделе Как брать аккорды. Аккорды для шестиструнной гитары. Другие песни можно найти на нашем сайте, воспользовавшись алфавитным указателем вверху страницы.


 
Ошибка в тексте? Выделите ошибку и нажмите Ctrl+Enter