Subject: O.k. ... here's some HENDRIX....Little Wing Intro..
 
---------12-----------------------------------------3 5 3 3----- 
---------12----------------------------5------------3---------
------X--12--------X-----------0---5---5------0-----------------
------X-------------X----X-------5--5---7-------------------5---
------X--12--------X----X--0-2--5-7------------------------------
------------0------------X-----------------23--------------------
 
 
 
------------------------------------------------------------------
----3---3----------------------------------------5----------------
--4-5---5--4-5--4---------------------5--------5-7----------------
------------------5-------------------5--------------5-7--5-------
--------------------------------5--7----7------------5-7--5-------
-----------------------5-------------------------------------5-7-
 
-----------------------------------------------------9--10--9-----
----------8-10-8-------------------------------------7--10--7-----
----------7------7-------7--7--7-----7-------------------7--7-----
-------------------9---7-7--9--7-7---7------------9---------------
-------------------7-7-10--------10--7----------------------------
----0--------------------------------------7----------------------
 
 
 
 
 
 
----------7--------------------------------------------------------
---7-10---7--------------------------------------------------------
------------7------6------------5--5-5--5------------5-5--5--------
------------9------87--------5-7--9-7--5--5-----5---5-7--5--------
-----------------X-------------------------8-----7-----------------
-------------7-6-----------5---------------------------------57---
 
-----------5/7--4--5-----53---------------------------------------
-----------3/5-----3-----51--1----1----1------------------3-1-0---
-------0---0-------0-----0----0----0----0--------2----2----2-------
-------5---5/7-----------53-------3----3--------2--2--------------
---------------------------------------------0-3--------------3----
--2/3-----------------0---------1-----1----1-----------------------
 
 
 
 
--------------------------------------------------------------------
------------------------------7-------------------------------------
--------------------------7---7------7---7------------7-------------
----------7-------7-------7---9------7---7---7---7----7-------------
---3/5-----5--------5------------------------10--7------------------
--------------------------------------------------------------------
___________________________________________________________________________ 
VERSION 2

Intro
-----

e------12----------x----x----------------------------3---3------|
B------12----------x----x----------------------------3h5-3------|
G------12----------x----x-----------------------------------5---|
D------12----------x----x---------------------------------------|
A-------------------x----x---------0---------5h7-----------------|
E---0---------0-----x----x---0h2--------5h7-------3--------------|
                     strum
                     muted strings


e-----3-3-3-3-3-----------------------------------------|
B-----5-5-4-5-4-4---------------------------------------|
G---------------5------------------5--------------------|
D-----------------------------5----5h7--5---------------|
A-------------------------5-7---7----------7--5h7p5-----|
E----------------------5-----------------------------7--|

e-----------------7-9-7--------------|       C chord: x32010
B-----------------7---7---10---7-----|       D chord: xx0232
G--------------------------------9---|
D-------0h2--------------------------|
A------------------------------------|
E----0--------7----------------------|                        

e-----------------------------------|---5/////75-----3--|Strum 4 C chords
B-----------------------------------|---3/////53-----1--|and 4 D Chords
G--------------5--------------------|-----------------------|
D---------5----5h7--5---------------|---5/////75-----3--|  
A-----5-7---7----------7--5h7p5-----|-----------------------|
E--5-----------------------------7--|---3/////53-----1--|

Verse
--
Em  G  Am  Em Bm Am G  F  C  D

For the solo, all I know is the all important b--15b--15b--15--12-15-12--|
at the start, and then just improv an e minor pent. with the verse playing 
for rhythm.


Текст, аккорды и табулатура для песни "Little Wing", исполняет "Jimi Hendrix".
Используемые в песне аккорды можно найти в разделе Как брать аккорды. Аккорды для шестиструнной гитары. Другие песни можно найти на нашем сайте, воспользовавшись алфавитным указателем вверху страницы.


 
Ошибка в тексте? Выделите ошибку и нажмите Ctrl+Enter