----------------------------------------------------------------------------
			     HEY JOE - Jimi Hendrix
----------------------------------------------------------------------------
Tabbed by: Nick Conrad
Email: [email protected]

Tuning: Standard EADGBF

[URL=http://www.ddanzi.com/ddanziilbo/100/100_img/100ma_39-lyrics-08.wma]Hey Joe WMA[/URL}

                                          
Intro                                      
|-0(let ring)----0----------------------| 
|-3/5/3----------0----------------------| 
|-------2--0-----1-------------7-99-7-99| 
|------------2---2-2/5-5-4-2---7-99-7-99|
|----------------2-2/5-5-4-2---7-77-7-77|
|-------------0--0----------------------|                                  
 
Verse Chord Progression                                       
  C    G     D    A     E

|------33---------55----0-0|
|-5-5--33----7-7--55----0-0|
|-5-5--44----7-7--66----1-1|
|-5-5--55----7-7--77----2-2|
|-3-3--------5-5--------2-2|
|------3353-------5575--0-0|


Chorus Riff          Chorus Riff after 2nd verse
|-----------------|  |------------------|
|-----------------|  |------------------|
|-----------------|  |------------------|
|-----------------|  |-------5----------|
|---5---5--7------|  |---5-----7--------|
|-5---7-----------|  |-5---7------------|


Post-Solo Riff
|-----------------------------------|
|-----------------------------------|
|-----------------------------------|
|-----------------------------------|
|-3---------2-3-4-5----------4-5-6-7|
|---0-1-2-3---------2-3-4-5---------|



| /  slide up
|   slide down
| h  hammer-on
| p  pull-off
| ~  vibrato
| +  harmonic
| x  Mute note


Текст, аккорды и табулатура для песни "Hey Joe", исполняет "Jimi Hendrix".
Используемые в песне аккорды можно найти в разделе Как брать аккорды. Аккорды для шестиструнной гитары. Другие песни можно найти на нашем сайте, воспользовавшись алфавитным указателем вверху страницы.


 
Ошибка в тексте? Выделите ошибку и нажмите Ctrl+Enter