v vibrato
 b bend
 bd pre bend, bring down
 p pull
 h hammer
 5h7p5 hammer pull
             Standard tuning.
 
  INTRO
 -------------------------------5-------5----------------------5------5------5--------------5------5------5-----------|
 -------------------------------5-------5----------------------5------5------5--------------5------5------5-----------|
 ---------------------------------------------------------------------------------------------------------------------|CONTINUE
 ----------------------------------4-4---------------------------4-4--------------------------4-4---------------------|
 |--21b-21*---------------------------------------------------2-3-4--------------------------2-3-4-------------------------2-3-4--|
 feedback--pick scratch----2-2-----------2-2--2-5-------2-2-------------2-2----5--------2-2-----------2-2----5--------|
  *alternate picking* You can pick scratch or slide down from 12th fret, pick scratch sounds cooler.
                                         RIFF B            C              D                E            F
 |-----5-----5----------5-------------|  |-2-2-2--1-1---| --|---| | -------------------|
 |-----5-----5----------5-------------|  |-2-2-2--1-1---| --|---| | -------------------|
 -------------------------|  |-3-3-3--2-2---| --|---| | |--16b-14v--16b-16b-14v-(/14)--|
 |-------4-4--------------------------|  |-4-4-4--3-3---| |-2h4-4-2h4-4-||----2---2-4---| |---3-4p3-2-| -------------------|
 ----4-2----------2-3-4---|  |-4-4-4--1-1---| --||--4---4-----4-| |-4---------| -------------------|
 |-2-2---------------2------5---------|  |-2-2-2--1-1---| --|---| | -------------------|
 G
 -------------------|
 -------------------|
 |--9/17--14v--9/17--14v--14/8--|
 -------------------|
 -------------------|
 -------------------|
 
 SOLO
 -------------------------------------------------------------------------------------18b-17b-------------------|
 |-18b-18bd-------------------------------------------------------------------19-18b----18----19----------------19----------|
 -----------------------------------------------------------18-18--------18----18-------------18-18----21-18-18-| CONTINUE
 |----------19v-------16v-----------------16-17-17b-17-16v-16h17p16-15v-----------------------------------------------------|
 ---12/15-----17p15-12v-12/15-----------------------------------------------------------------------------------|
 ---------------------------------------------------------------------------------------------------------------|
  CONTINUE
 ------------------------------------------------------------------------------------------------------|
 --------------------------------------------------19--------------------------------------------------|
 |--21-18-18-21-18-18-21-18-18-21-18-18-18-21b-21-18-19-18-21-----21p18--------------------------------------------|
 -----------------------------------------------------------16h18p16-19v-------------------------------|
 -------------------------------------------------------------------------16h18p16-19v-----------------|
 ---------------------------------------------------------------------------------------16h18--16/12---|
 Yeah it`s a little chopped up but it`s pretty darn close, you fill in the rest.  He plays this solo in the upper frets.
 
 RIFF A
 |-------5-------5----------------------5------5------5--------------5------5------5-----------|
 |-------5-------5----------------------5------5------5--------------5------5------5-----------|
 ----------------------------------------------------------------------------------|CONTINUE
 |----------4-4---------------------------4-4--------------------------4-4---------------------|
 --------------2-3-4--------------------------2-3-4-------------------------2-3-4--|
 |--2-2-----------2-2--2-5-------2-2-------------2-2----5--------2-2-----------2-2----5--------|
 CONTINUE
 |-----5-----5----------5-------------|
 |-----5-----5----------5-------------|
 -------------------------|
 |-------4-4--------------------------|
 ----4-2----------2-3-4---|
 |-2-2---------------2------5---------|
 
 SONG
 [intro]You know youre a cute little heart breaker.
 [riff a]And you know youre a sweet little love maker
 [riff b]I want to take you home[c]
 [riff b]I wont do you no harm[d]
 [riff b]Youve got to be all mine[e]foxey lady[f]
 
 [riff A]I see you come down on the scene, oh foxey
 you make me wanna get up and scream, [Riff b] baby listen now.
 Ive made up my mine, tired of wasting all my prescious time.
 youve got to be all mine foxey lady.[g][solo]
 
 And then he reapeats some of the verses and the riffs. There are a few different versions of this song. Good luck and rock and roll!
 
 
 
 
 
 
 
 



Текст, аккорды и табулатура для песни "Foxy Lady (tab)", исполняет "Jimi Hendrix".
Используемые в песне аккорды можно найти в разделе Как брать аккорды. Аккорды для шестиструнной гитары. Другие песни можно найти на нашем сайте, воспользовавшись алфавитным указателем вверху страницы.


 
Ошибка в тексте? Выделите ошибку и нажмите Ctrl+Enter