Drifter`s Escape - Jimi Hendrix
 
   main riff          
 G|------4-----------|
 D|646--6-6--646-----|
 A--4464-|
 E------4|
 
 Here are some variations of that pattern
 
 G|------4------4464---------------|
 D|646--6-6--646----6-------------6|
 A-------|------2------2242-|------2------2242-|
 E-------|424--4-4--424----4|424--4-4--424-----|
 
   After about two minutes of the song, it changes to these riffs and variations of
 G|--------4-|----------|
 D|6646--66-6|----------|
 A|----------|--------2-|
 E|----------|4424--44-4|
 




Текст, аккорды и табулатура для песни "Driving South (tab)", исполняет "Jimi Hendrix".
Используемые в песне аккорды можно найти в разделе Как брать аккорды. Аккорды для шестиструнной гитары. Другие песни можно найти на нашем сайте, воспользовавшись алфавитным указателем вверху страницы.


 
Ошибка в тексте? Выделите ошибку и нажмите Ctrl+Enter