Intro
 G||   1-1-1-1-1-1-1-1| ------3---5---3--| ---------------------    ||
 D|| " ---------------------| ----5------------5| ------1----3---1--  " ||
 A|| " ---------------------| 3------------------| ---3---------------3 " ||
 E||   ---------------------| --------------------| 1-------------------   
 ||
 	Verse
 G|| ----------------------| --------------------|       
 D|| ----------------------| 3-3----------------|       
 A|| 3-3------------------| --------------------| Repeat Then:
 E|| ----------------------| ---------------------| 
 
 G| ----------------------| ---------------------| 1-1----------------|
 --------------------|
 D| ----------------------| 1-1-----------------| --------------------|
 5-------------------|
 A| 1-1------------------| ---------------------| --------------------|
 -----5-----2-------|
 E| ----------------------| ----------------------| --------------------|
 ----------------3--|
 	Chorus
 G||   ------3---5--3---| -----------------------|                          
    | ---------------------    |
 D|| " ---5------------5-| -----1----3----1----|                            
   | --------------------- " |  
 A|| " 3-----------------| ---3----------------3-| Repeat Twice Then: |
 1-1-1-1-1-1-1-1 " | Repeat
 E||   -------------------| 1----------------------|                        
      | ---------------------   |
 	Before the Second Time Through Chorus
 G| ---------------------|
 D| ------3---5---3----|
 A| ---5--------------5-|  Repeat Then Proceed To Chorus
 E| 3--------------------|



Текст, аккорды и табулатура для песни "Crosstown Traffic (btab)", исполняет "Jimi Hendrix".
Используемые в песне аккорды можно найти в разделе Как брать аккорды. Аккорды для шестиструнной гитары. Другие песни можно найти на нашем сайте, воспользовавшись алфавитным указателем вверху страницы.


 
Ошибка в тексте? Выделите ошибку и нажмите Ctrl+Enter