Tune down 1/2 step i.e. Eb Ab Db Gb  4/4 time moderate rock.
 
 (Note , there are no clues as to note timing, so you`ll have to figure
 that one out yourself;-) Alos this is a straight ASCII file so prop. fonts will
 make it look untidy.
 
 
 Intro:
                    
 ---------------------------------------------------|
 -----------9--9--11----|--11--11--11------------9--9--7--------|
 ---------------------------------------------------|
 ---------------------------------------------------|
 
 ---------------------------------------------------|
 |---7--7--7------------9--9--11----|--11--11--11------------9--9--7--------|
 ---------------------------------------------------|
 ---------------------------------------------------|
 
 ---------------------------------------------------|
 |--7-----------------------------------------------------------|
 --------------2--3-----|--4-----4-----2--2---------------x--2--|
 |-----0--0--2---3-3--3--4----------2---------------------------|
 
 ------------------------------------4---4----------|
 --------------------------------4-----------4------|
 |-0------------------2--3----------|-4---4---4---0---2---------------------|
 |----0--2---2--3--4--------------------------------------------|
 
 -----------------------||
 -----------------------||
 |-0-----------------2---3----------||
 |---0--2-----3--4------------------||
 
 1st Verse
 --------------------------2------------------------|
 4--------------------------------------------------|
 |--4-----------2---2-------2-------|---0--------------2-2---2--2---3-------|
 ---------------------------------------------------|
 
 ---------------------------------2-----------------|
 |----------4----------------4------------2---------------------|
 |---4---------4-----4-----------4--|--0----0----------------2----2--2--3--3|
 ---------------------------------------------------|
                                                         ___
 -----------------------|-------2-----2---2--2/4----------------|
 |----------4----------------4----------------------------------|
 |--4----------2----2------------2--|--0--------------------2--2--2--2--3--3|
 ---------------------------------------------------|
 
 -----------------------|--___----------------------------------|
 |----------4-----------------------|--2/4---4--4---4-----2---2-------------|
 |--4---------2-----2------_____---------------------2---x---2--|
 -----------0--5---0--------------------------------|
 
 ------------------------------9--------------------|
 ---------------------------------11--9-------____--|
 |--4----------2----2-----------2---------------------9--10/11--|
 |----------0-----------------------|--5---5--5---5-------------------------|
 
 ---------------------------------------------------|
 -----------------------|----------7----------------------------|
 ---------------9---9---|-------7-----7--7--7-------------------|
 |----9-----0----7--7---------------|---5----------------------7---7--0---8-|
 
 ------------------------9--------------------------|
 -----------------------|-------7-------11---9------------------|
 ----------------___----|---7-----------------------9---10---11-|
 |--9----9---8---7---7---x---75----|---5-----------------------------------|
 
 -------------------------------------0--10-11-12-13||
 -------------11--9-----|-/11-11--11---11--11--11---------------||
 |---------0----------------------------------------------------||
 |--9---------7---7---7-----------------------------------------||
 
 
 Guitar solo 1
 ---------------------------------------------------|
 |---11-------------------9-------------------___----____-----9-|
 |---------11---------11-----9-----9----------7/9-9--9/11--11---|
 -----9-------------7---|---5--0--0--5--5---9-------------------|
 
 ---------------------------------------------------|
 |-11------------9--9-----------------7--7---7------------------|
 |----11-----11-------9-----9-----------------------------------|
 |--------9--------------7----------|--5---0--0--5---------7-7---7--7--7--0-|
 
 ---------------------------------____--------------|
 |----------11------------9---------7------9--9-11-____---------|
 |---11--11----11----9-9-----9--------/11----------9-11---------|
 |-9--------------7-----------------|--5--0--5------------------------------|
 
 ---------------------------------------------------||
 |------11------------9--------------7---7---9---9--------------||
 |----------11-----------9-------------------------10--11-------||
 |----9---------9--7---------7------|-5--0--0--5----------------------9----||
 
 
 2nd Verse
 ------------------------9--------------------------|
 ---------------------------11--9-------------------|
 -----------------9----------------9--10--11--------|
 |--9---9-------5----7---7-------7--|----5---5------------------------------|
 
 |----------9----------------------------___--------------------|
 ------------------------7---7/9---___--------------|
 ----------------------------------7/9--9-----------|
 |--9---9------9--9---7---7---0--5--|----5--5------------------------2----3-|
 
 --------------------------11-------------------------|
 -----------------------------9-----------9---9-------|
 --------------------------------11---12--------------|
 |--9----9----8---9---7---7---0----7|---5------5-------------------------7---8|
 
 ---------------------------------------------------|
 ---------------------------------------------------|
 ------------------7----|--/9---7---7-7-------------------------|
 |--9----9----9---9---7---7------7--------9--7--7--7-----7---7--|
 
 -------------------------9------____----------------|
 --------------7-------------11--9-11--9-------------|
 |-----0----------------------7-------------------------11-------|
 |-9-------9---7---7----------------|----5-----------------------------------|
 
 ---------------------------------------------------|
 ---------------------------------------------------|
 -------------____-----------9--9--------____-------|
 |-9-----0---7---7--------0--7------|---5------5---x-------------7--9--7----|
 
 ---------------------------------------------------|
 |---------11------------------9----|-------7----7--------------------------|
 ----0----------9-----9-----------------------------|
 |--9---9-----------7---7-----------|----5----------------7---7----7----7--8|
 
 ---------------------------------------------------||
 --------------------------------10--11--11--12--13-||
 -----------------------|-11--11--11--11---11-------------------||
 |--9------------------7----7-----------------------------------||
 
 Guitar solo 2
 ----------------------------9--11-11---------------|
 |--11---------------9------9-------|--------7---------------9-11-11--____--|
 |-------11-------11----9-9---9--9--|----7-----7----------------------9-11--|
 9--9-------------------|--5----------5-------------------------|
 
 -----------------------|---------____------------____----------|
 |----------11--------------9-------|----7--7-9-11-11-____----9-11-11____---|
 |-----11-------11------9------9----------9-11-11--------9-11-11|
 |--9----------------7--------------|--5------------------------------------|
 
 ---------------------------------------------------|
 |-------11---------------9-------------------------------------|
 |---11------11-----9--9-----9--------------------9---7---------|
 |-9-------------7------------------|--5---0--5-0/9----7--7-----------------|
 
 ---------------------------------------------------||
 -11-----9--9---------------------------------------||
 |------11-11-----11------9-----9-------------------------------||
 |---9-----------------------7------|-5--5-5---5---5---5---7--7---7---7---8-||
 
 ------------------------6-6------------------------|
 |---------11-----------9-----------|---------7--------7--7-----------------|
 |-----11------------9--------------|------7--------------------------------|
 |--9--------------7----------------|---5----------------------7------------|
 
 ---------------------------------------------------|
 |---------9------------9-----x-----|--------7------------------------------|
 |-----11------------9--------------|-----7---------------------------------|
 |--9-----------x-7-----------------|--5----------7--7--7--7---7--7--7--8---|
 
 ---------------------------------------------------|
 ---11--------------9---|----------7--____----------------------|
 |-------11--11----------9--9-------|-------7-----7--9--9--7--9--7----------|
 |--9--9------------7--7------------|--5--5------------------------7--8-----|
 
 ----------------------------____-------------------||
 ----11---9-9-----------7----9/11--11---------------||
 |-------11--11-----------9---------|--------7----------------9--10-11-9-11-||
 |-9--9----------------------7------|--5--5---------------------------------||
 
 ---------------------------------------------------|
 ---11----9----------------____---------------------|
 |-------10--11----------9-------------7--9--9-7--9-7-----------|
 |-9--9-----------------------7-----|--5---5---5------------------7--8------|
 
 -----------------------____------------------------|
 --9--------------------9/11-11---------------------|
 -------------------------------9--10--10--11-------|
 |-9---9----x-----7---7-----7-7-----|--5--5---------------------------------|
 
 ---------------------------------------------------|
 -11------------9--9-----7--7--7--------------------|
 |----11--11----------9--9--------------------------------------|
 |-9-------------7--7---------------|-5---5-5--5---------7-7---7---7---8-8--|
 
 -----------------8-----|-11-11-11-11-11-12--13--13--13--9------|
 |----------11----------9------------------------------------9--|
 |---11--11--------9-9------------------------------------11----|
 |-9-----------7-7----------------------------------------------|
 
 ---------------------------------------------------|
 |---11---11-------7----9---9-----9-|--7---7---5--6--7---9--11--11---------9|
 -----------------------------------------9-11--11--|
 ---------------------------------------------------|
 
 ---------------------------------------------------|
 ------11-------9-----------------------------------|
 11-11-------9-----9--9-------------------2---------|
 |-9---9---9---------7--7-----------|--5---5---5-5--0---2--3--4-------------|
 
 |-------6---x--x-4-4--4----------------------------------------|
 |----6------------------4--x--x--------------------9-----------|
 |--4-------------------------------|-0---4--5--6--7--8--9---11-------------|
 ---------------------------------------------------|
 
 ---------------------------------------------------||
 |--11------------9-----------------|---7-----------------------------------||
 |------11-----------9--------------|-------7--------------------------2----||
 |----------9--x-----------7----x---5----0----2----3----4-------||
 
 
 3rd Verse
 ---------------------------------------------------|
 -----------------------|------/-11--11--11---------------------|
 |--4---------2--2---------0---2----|--0--/-------------9--10--11-----------|
 |---------4----------------------------------------------------|
 
 ---------------------------------------------------|
 ---------------------------------------------------|
 -----------------------|------7--9--9-----9---7----------------|
 |---9---5-----7--7-------5--7------|--5----------------------9-------------|
 
 ---------------------------------------------------|
 ---------------------------7-----------------------|
 |------9-------------------------------------------------------|
 |---9-------7---7---------7--------|---5----5------------7-----7-------0---|
 
 -----------------------------/11-------------------|
 ------------------------------------------10-11----|
 |---4-------0--2--2----------0--2--|-/9------------------9-----------------|
 ---------------------------------------------------|
 
 ---------------------------------------------------|
 ---------------------------/9--9-9--9-/11-11-11----|
 |-------0-----------------9------------------------------------|
 |-9--------7---7-------------7-----|--5--------5--5------------------------|
 
 ---------------------------------------------------|
 -----------------------|-----11--11-11---11-------11----11-----|
 -----------------------------------11--------------|
 |-------9---5--7--7---------5--7---|--5-----9------------9--------9--------|
 
 ---------------------------------------------------|
 --------------9-------------11---11----------------|
 |----------0-----------------------------------------9--9--7---|
 |---9----------7--7----------7-----|----5----5-----------------------------|
                                        ___
 -----------------------|-6-6-0--10-11-11-11-12-12-12--13-13-13-||
 ---------------------------------------------------||
 ---------------------------------------------------||
 |------9-------5------7--7-------------------------------------||
 
 ---------------------------------------------------|
 |-11--------9--9-------------------|-7--7-----7-------/11-11-11-11____-----|
 |---11---11------9------9----------|-------7----7--7--------------9-11--11-|
 |------9-------------7-----------------------------------------|
 
 ---------------------------------------------------|
 -11-11----------9------|-------/7--7-7-------------------------|
 |----11--11--------11---9-------9--|-----7-----------___-------------------|
 |-9-------------------7------------|--5--------------8/9--9-7--7-7---8-8---|
 
 ---------------------------------------------------|
 -------9--x-------_____------------9---------------|
 |----9--10-11-----------9-10--11--0|-------4---5--7-----9------------------|
 |-9------------7-------------------|---5-------------7---------x---7-------|
 
 -----------------------|/11-11-11_____--------------------------|
 11---------9-9-------x-|---------9-/11-11-11-11____-------------|
 |----11-11----------11-------9-----------------9/11-11-11-9-11-7|
 |--9--------------------------7---------------------------------|
 
 --------------------------___----------------------|
 -----------------------|----------7---7-9-9-10--11-11-11-------|
 ------------------------9--------------------------|
 |--9---9---------7--7-------7--7---|-5--5--5-------------------------------|
 
 |-____-----------------------------------|---------12-12/14/14-------------|
 |-9-11--11-11---------------------------|---------14-14------------9-10---|
 --9-11-11-12--12-12-9-9-10-11|-12-12---------------9-11--------|
 ---------------------------------------------------|
 
 ---------------------------------------------------|
 |-11-11----7--9--7--7--7-7-9-------|--7-7----------------------9--10-------|
 |--------0-------------------------|-------7-7-8---9-10--11-11-------------|
 ---------------------------------------------------|
 
 -----------------------|----14-14---14-14---14-----------------|
 |-11--11----------------------------------------------9-10-11--|
 |----------11-11-12--11---11--11-11|-12------12------12---12-11-11---------|
 ---------------------------------------------------|
                        Fade Out
 -----------------------||
 |------11------------9--9----------||
 |----------11-------------9--------||
 |---9----------9--7----------7-----||
 
 Key :
 / slide up to note
  slide down to note
 x muted percussive tone
 ___ hammer on /pull off
 ___
 x/y  legato slide
 


Текст, аккорды и табулатура для песни "All Along The Watch Tower (btab)", исполняет "Jimi Hendrix".
Используемые в песне аккорды можно найти в разделе Как брать аккорды. Аккорды для шестиструнной гитары. Другие песни можно найти на нашем сайте, воспользовавшись алфавитным указателем вверху страницы.


 
Ошибка в тексте? Выделите ошибку и нажмите Ctrl+Enter