51st Anniversary - Jimi Hendrix
 
   intro
    (x4)    
 G|--------|----14------141614--------14------------------------|
 D|9-9-9-9-|/16-----1416------16141416--9----------------------|
 A|--------|----------------------------------------------------|
 E|--------|------------------------------7775--550--000025h7p50|
 
   verse
    (x3)                  interlude
 G|----------------------|----------------------|
 D|----------------------|----------------------|
 A|----------------------|-57---35--------------|
 E|7775--550--000025h7p50|7--3----0--000025h7p50|
 
  after "you know, they have their fun"
 G|--------------|
 D|------5----4--|
 A|---5----------|
 E|7------------7|
 
  "and then you come along and talk about it.."
    (x6)      end
 G|---------|--------|
 D|---------|--------|
 A|---------|----7---|
 E|-7-7-7-7-|-7------|
 
   outro
    (x2)
 G|----------|---------------------------|
 D|------5---|5-5-5-5--simile-(fade out)-|
 A|---5------|-5-5-5-5-------------------|
 E|777-------|---------------------------|
 




Текст, аккорды и табулатура для песни "51st Anniversary (btab)", исполняет "Jimi Hendrix".
Используемые в песне аккорды можно найти в разделе Как брать аккорды. Аккорды для шестиструнной гитары. Другие песни можно найти на нашем сайте, воспользовавшись алфавитным указателем вверху страницы.


 
Ошибка в тексте? Выделите ошибку и нажмите Ctrl+Enter