Song: “Standing Still” version 3 new and improve
Artist: Jewel

Tabbed by: JAMES HUYNH
e-mail me if you have any questions aiight! CLASS OF 2002!
[email protected]

Standard Tuning, “FAST STRUMMING ON THE INTRO”

Intro:

Intro: Play over again
e|--2-2-2-2-2-2-2-2----0-0-0-0-0-0---2-2-2-2-2-2-2----------
B|--3-3-3-3-3-3-3-3----2-2-2-2-2-2---3-3-3-3-3-3-3----------
G|--4-4-4-4-4-4-4-4----2-2-2-2-2-2---2-2-2-2-2-2-2----------
D|--4-4-4-4-4-4-4-4----2-2-2-2-2-2--------------------------
A|--2-2-2-2-2-2-2-2----0-0-0-0-0-0--------------------------
E|----------------------------------------------------------

Fill:
e|-------------7----5----2----------------------------------
B|---7------------------------------------------------------
G|---------7------------------------------------------------
D|------7---------------------------------------------------
A|----------------------------------------------------------
E|----------------------------------------------------------


Chorus: 2X
e|--2--2-2-2-2--2-2-2-2-2-2-----0-0-0-0-0-0---0-0-0-0-0-0---
B|--3--3-3-3-3--3-3-3-3-3-3-----3-3-3-3-3-3---2-2-2-2-2-2
G|--2--2-2-2-2--2-2-2-2-2-2-----2-2-2-2-2-2---2-2-2-2-2-2---
D|------------------------------2-2-2-2-2-2---2-2-2-2-2-2---
A|------------------------------0-0-0-0-0-0---0-0-0-0-0-0---
E|----------------------------------------------------------
        2X 
e|--2--2-2-2-2-2-2----0-0-0-0-0-0-0--3-3-3-3-3-3-3---0-0-0-0-0-0-0-
B|--3--3-3-3-3-3-3----3-3-3-3-3-3-3--3-3-3-3-3-3-3---3-3-3-3-3-3-3--
G|--2--2-2-2-2-2-2----2-2-2-2-2-2-2--0-0-0-0-0-0-0---2-2-2-2-2-2-2-
D|--------------------2-2-2-2-2-2-2--0-0-0-0-0-0-0---2-2-2-2-2-2-2--
A|--------------------0-0-0-0-0-0-0--2-2-2-2-2-2-2---0-0-0-0-0-0-0---
E|-----------------------------------3-3-3-3-3-3-3-----------------

e|--0-0-0-0-0-0-0----0-0-0-0-0-0-0----0-0-0-0-0-0-0----------------------------
B|--0-0-0-0-0-0-0----3-3-3-3-3-3-3----2-2-2-2-2-2-2----------------------------
G|--2-2-2-2-2-2-2----2-2-2-2-2-2-2----2-2-2-2-2-2-2----------------------------
D|--2-2-2-2-2-2-2----2-2-2-2-2-2-2----2-2-2-2-2-2-2----------------------------
A|--0-0-0-0-0-0-0----0-0-0-0-0-0-0----0-0-0-0-0-0-0----------------------------
E|-------------------------------------------------------------------------------------------------------------------------------------------|
$
e|--2-2-2-2-2----3-3-3-3-3-----0-0-0-0-0-0-0-0-0-------------------------------
B|--3-3-3-3-3----3-3-3-3-3-----2-2-2-2-2-2-2-2-2-------------------------------
G|--2-2-2-2-2----0-0-0-0-0-----2-2-2-2-2-2-2-2-2-------------------------------
D|---------------0-0-0-0-0-----2-2-2-2-2-2-2-2-2-------------------------------
A|---------------2-2-2-2-2-----0-0-0-0-0-0-0-0-0-------------------------------
E|---------------3-3-3-3-3-----------------------------------------------------

*BACK TO INTRO and CHORUS but after the MONEY SIGN  play the chorus again and then solo

e|---10/12--10----7--2---0--5--------------------------------------------------
B|---------------------------------------------------------------------------|
G|---------------------------------------------------------------------------|
D|---------------------------------------------------------------------------|
A|---------------------------------------------------------------------------|
E|---------------------------------------------------------------------------|

/= slide up 

That’s pretty much the whole song and when I first heard it on the radio, I had to tab it.

Remember to listen to the song to get the strumming pattern down


Текст, аккорды и табулатура для песни "Standing Still", исполняет "Jewel".
Используемые в песне аккорды можно найти в разделе Как брать аккорды. Аккорды для шестиструнной гитары. Другие песни можно найти на нашем сайте, воспользовавшись алфавитным указателем вверху страницы.


Слушать онлайн Standing Still


JewelStanding Still на Яндекс.Музыке


 
Ошибка в тексте? Выделите ошибку и нажмите Ctrl+Enter