JEWEL – FOOLISH GAMES
INTRO:
e ---------0---1---3---1---0---1------------0---1---3---1---0---1------------1---3---5---3---------------
B-----3----------------------------------3----------------------------------1----------------------6----------
G---2---2---2---2---2---2---2------------------------------------------2-----------------------------5-----
D-0------------------------------------3---3---3---3---3---3---3----3------3---3---3---3---3---3--------
A------------------------------------1-----------------------------------------------------------------------3-
E---------------------------------------------------------------------------------------------------------------

----------------3---------------
-------5---6-------6---5-------
--5--------------------------5--
5---5---5---5---5---5---5---5-
---------------------------------
---------------------------------

Verse:
e----------5----------------5--------------6------------6--------------1---------------1---------------0-
B-------6-6-----6-------6-6-----6--------6-------------6--------------1---------------1-------------1-1--
G-----7-------7-------7-------7---------7------7------7------7-------2-------2-------2-------2-----0-----
D---7-------7-------7-------7----------8------8------8------8-------3-------3-------3-------3-----2------
A-5----------------5------------------8------8------8------8-------3-------3-------3-------3-----3-------
E------------------------------------6-------------6--------------1---------------1----------------------
                           “You…... off                              And…rain                                You were…..        

----------------0-------}
--------------1-1-------}
-----0------0---------0-}    4 X
---2------2---------2---}   
-3------3---------3-----}
------------------------}
….that”

lyrics:
You took your coat off and stood in the rain, 
You were always crazy like that 
I watched from my window, 
always felt I was outside looking in on you 
You were always the mysterious one 
with dark eyes and careless hair, 
You were fashionably sensitive, but too cool to care 
Then you stood in my doorway, with nothing to say 
besides some comment on the weather

BRIDGE:

             Gm
Well in case you failed to notice, 
             Bb
In case you failed to see, 
F   
This is my heart bleeding before you, 
C
This is me down on my knees

CHORUS:
Bb                   C             F   C           Bb 
These foolish games are tearing me apart
Bb                      C               F     C           Bb 
You’re thoughtless words are breaking my heart
                           Dm 
You're breaking my heart

REPEAT INTRO

Verse:
same as the intro

Lyrics:
You were always brilliant in the morning 
Smoking your cigarettes, talking over coffee 
You philosophies on art, Baroque moved you, 
You loved Mozart and you'd speak of your loved ones 
As I clumsily strummed my guitar 
You'd teach me of honest things 
Things that were daring, things that were clean 
Things that knew what an honest dollar did mean 
So I hid my soiled hands behind my back 
Somewhere along the line I must've gone off track with you

BRIDGE:

Gm                                                          Bb
Excuse me, think I've mistaken you for somebody else 
F
Somebody who gave a damn, 
C
Somebody more like myself

REPEAT CHORUS

REPEAT INTRO 

You took your coat off and stood in the rain, 
you were always crazy like that

REPEAT INTRO


Текст, аккорды и табулатура для песни "Foolish Games", исполняет "Jewel".
Используемые в песне аккорды можно найти в разделе Как брать аккорды. Аккорды для шестиструнной гитары. Другие песни можно найти на нашем сайте, воспользовавшись алфавитным указателем вверху страницы.


Слушать онлайн Foolish Games


JewelFoolish Games на Яндекс.Музыке


 
Ошибка в тексте? Выделите ошибку и нажмите Ctrl+Enter