#----------------------------------PLEASE NOTE---------------------------------#
#This file is the author's own work and represents their interpretation of the #
#song. You may only use this file for private study, scholarship, or research. #
#------------------------------------------------------------------------------##
#

Date: Tue, 16 Jul 1996 16:31:21 +0200 (CETDST)
From: Felix 


Joan Jett & The Blackhearts : I Love Rock'N'Roll


Hi folks! That's a raw version of this song. Especially about the
solo I'm not sure at all. I hope that there aren't too much
mistakes. If you find some or if you have any corrections or
ideas please email me: [email protected]

[email protected]------|
-----------------------------------------------------------------------|
-------------------2-2----4-4----------------------2-2-----4-----------|
---2-2----2-2----5-2-2----4-4-5----2-2----2-2----5-2-2-----4--5---2-2--|
---2-2----2-2----5------------5----2-2----2-2----5------------5---2-2--|
-----------------------------------------------------------------------|


-----5bu-rb-3-0------------------------------------------|
----------------3----------------------------------------|
---------------------------------------------------------|
-2-2--------------2-2-------------------------------2-2--|
-2-2--------------2-2-------------------------------2-2--|
---------------------------------------------------------|
           I saw him dancing there by the record machine


-----5bu-rb-3-0-------------------------------------|
----------------3-----------------------------------|
---------------------------------------------4-4----|
-------------------2-2-----------------------4-4----|
-------------------2-2------------------------------|
----------------------------------------------------|
               I knew he was a bit about seventeen

-----5bu-rb-3-0------------------------------|
----------------3----------------------------|
--------------------2-2---------------4-4----|
--------------------2-2---------------4-4----|
---------------------------------------------|
---------------------------------------------|
                The beat was going strong


-----------------------------------------|
-----------------------------------------|
----------------------------2-let ring!--|
----2-2---------------------2------------|
----2-2----------------------------------|
-----------------------------------------|
   They played my favoured song

Just let ring!                       XStop ringing!
---------------------------------------------------|
---------------------------------------------------|
---------------------------------------------------|
---------------------------------------------------|
---------------------------------------------------|
---------------------------------------------------|
And I could tell it wouldn't be long


(No chords)
He goes with me - Yeah me!

---------------------------------------------------------------------|
---------------------------------------------------------------------|
---------------------------------------------------------------------|
---------------------------------------------------2-2-2-2-2-2-2-2---|
---------------------------------------------------2-2-2-2-2-2-2-2---|
---------------------------------------------------------------------|
And I could tell it wouldn't be long He goes with me - Yeah me!


REFRAIN:
---------------------------------------------------------------------|
---------------------------------------------------------------------|
---------------------------------2-2--------------------4-4----------|
---------2-2-------2-2-------5---2-2--------------------4-4----------|
---------2-2-------2-2-------5---------------------------------------|
---------------------------------------------------------------------|
singing: I love rock'n'roll so put another dime in the jukebox, baby


                                                                END OF REFRAIN
------------------------------------------------------------------------------|
------------------------------------------------------------------------------|
---------------------------------2-2-----------------------4------------------|
---------2-2-------2-2-------5---2-2-----------------------4------5---2-2-----|
---------2-2-------2-2-------5------------------------------------5---2-2-----|
------------------------------------------------------------------------------|
         I love rock'n'roll so come and take your time and dance with me! OUGH!


-----5bu-rb-3-0-----------------------------------------------|
----------------3---------------------------------------------|
--------------------------------------------------------------|
---2-2--------------2-2---------------------------------2-2---|
---2-2--------------2-2---------------------------------2-2---|
--------------------------------------------------------------|
                 He smiled, so I got up and asked for his name


-----5bu-rb-3-0------------------------------------------------------|
----------------3----------------------------------------------------|
---------------------------------------------------------------4-4---|
--------------------2-2----------------------------------------4-4---|
--------------------2-2----------------------------------------------|
---------------------------------------------------------------------|
               that don't matter, he said, because it's all the same

-----5bu-rb-3-0------------------------------|
----------------3----------------------------|
--------------------2-2---------------4-4----|
--------------------2-2---------------4-4----|
---------------------------------------------|
---------------------------------------------|
                 soon gonna take you home

-----------------------------------|
-----------------------------------|
------------------2--let ring!-----|
---2-2------------2----------------|
---2-2-----------------------------|
-----------------------------------|
where we can be alone


Let ring!                                XStop ringing!
--------------------------------------------------------|
--------------------------------------------------------|
--------------------------------------------------------|
--------------------------------------------------------|
--------------------------------------------------------|
--------------------------------------------------------|
The next moving on goes with me - Yeah me


------------------------------------------------|
------------------------------------------------|
------------------------------------------------|
----------------------------2-2-2-2-2-2-2-2-----|
----------------------------2-2-2-2-2-2-2-2-----|
------------------------------------------------|
Next we moving on goes with me, Yeah me !

REFRAIN
----------------------------------------------------------------------|
----------------------------------------------------------------------|
---------------------------------2-2--------------------4-4-----------|
---------2-2-------2-2-------5---2-2--------------------4-4-----------|
---------2-2-------2-2-------5----------------------------------------|
----------------------------------------------------------------------|
singing: I love rock'n'roll so put another dime in the jukebox, baby


                                                                  END OF REFRAIN
--------------------------------------------------------------------------------|
--------------------------------------------------------------------------------|
---------------------------------2-2-----------------------4--------------------|
---------2-2-------2-2-------5---2-2-----------------------4------5---2-2-------|
---------2-2-------2-2-------5------------------------------------5---2-2-------|
--------------------------------------------------------------------------------|
         I love rock'n'roll so come and take your time and dance with me! OUGH!


SOLO:

********
|
|LEAD GUITAR:
|------5bu-rb-3-0------------------------------4--7----4----------------------|
|-----------------3----------------3----5-7---------7-----5-bu-rb-3---------5-|
|----------------------------------2--6-----------------------------4--4-4-6--|
|--2-2----------------2-------------------------------------------------------|
|--2-2----------------2-------------------------------------------------------|
|-----------------------1bu-1bu-0---------------------------------------------|
|
|
|
|RHYTHM GUITAR:
|------5bu-rb-3-0--------------------5bu-rb-3-0------------------5bu-rb-3-0-----|
|-----------------3----------------------------3----------------------------3---|
|-------------------------------------------------------------------------------|
|--2-2---------------------------2-2-------------------------2-2----------------|
|--2-2---------------------------2-2-------------------------2-2----------------|
|-------------------------------------------------------------------------------|
|
*********


*********
|
|LEAD GUITAR: (plays fast stuff!)
|-----------------------------------------------------------------|
|-7-7-7s6-6-6-6s5-5-5-5s4-4-4-4s3-3-3-3s2-2-2s0-0-0---------------|
|-----------------------------------------------------------------|
|-----------------------------------------------------------------|
|-----------------------------------------------------------------|
|-----------------------------------------------------------------|
|
|
|RHYTHM GUITAR:
|-----------------------------------------------------------------|
|-----------------------------------------------------------------|
|-2-2-----------------4-4--------------------------2--let ring!---|
|-2-2-----------------4-4-----------2-2------------2--------------|
|-----------------------------------2-2---------------------------|
|-----------------------------------------------------------------|
|soon gonna take you home         where we can be alone
|
**********                                             END OF SOLO

Let ring!                                XStop ringing!
---------------------------------------------------------|
---------------------------------------------------------|
---------------------------------------------------------|
---------------------------------------------------------|
---------------------------------------------------------|
---------------------------------------------------------|
Next we moving on goes with me - Yeah me

(No chord)
And we'll be moving on and singing some old song, Yeah with me


singing......
(Sing the REFRAIN once without guitars, than start the guitar again and repeat
it as often as you can stand it! The lead guitar may play another solo.)

That's it ! have fun !

bu means: bend up
rb means: release bend
s  means: slide


Текст, аккорды и табулатура для песни "I Love Rock", исполняет "Jett Joan".
Используемые в песне аккорды можно найти в разделе Как брать аккорды. Аккорды для шестиструнной гитары. Другие песни можно найти на нашем сайте, воспользовавшись алфавитным указателем вверху страницы.


 
Ошибка в тексте? Выделите ошибку и нажмите Ctrl+Enter