------------------------------------------------------------------------------- 
                    MORNING NEW DISEASE - Jets To Brazil 
------------------------------------------------------------------------------- 

I'm not good at tabbing out the rythym, so pop in the cd 
and figure it out yourself. 

Normal tuning 

Key: h-hammer on 
^-bend to 
p-pull off 
/-slide 
-slide 
Intro is simply this, many times over. 

e--------------------------------------I 
b-9-9-10-10-9-9-10-10-9-9-10-10--------I 
g--------------------------------------I 
d--------------------------------------I 
a--------------------------------------I 
E--------------------------------------I 

Verse: 2x 
e----------------------------------------------------------------I 
b----------------------------------------------------------------I 
g-7-7-x-x-7-7-x-x-x-x-7-7-7-7-7--9-9-x-x-9-9-x-x-x-x-9-9-9-9-9---I 
d-7-7-x-x-7-7-x-x-x-x-7-7-7-7-7--9-9-x-x-9-9-x-x-x-x-9-9-9-9-9---I 
a-5-5-x-x-5-5-x-x-x-x-5-5-5-5-5--7-7-x-x-7-7-x-x-x-x-7-7-7-7-7---I 
E----------------------------------------------------------------I 
Morning new disease, charcoal in bed. 
Bone soaked anaemic, listen in horror. 

Bridge1: 
e---------------------------------------------------------------------I 
b---------------------------------------------------------------------I 
g--9h11-11-11-11p9-9-9-11h13-13-13-13-13------------------------------I 
d-----------------------------------------10-9-9--10-9-9--7-9-6-------I 
a---------------------------------------------------------------------I 
E---------------------------------------------------------------------I 
To the scraping of flatware and china and seran wrap to stifle libido. 

Verse 2x: 
Airshaft a chasm, there lives flung open. 
Sickness is a time for hating your neighbors. 

Bridge1: 
In their milkflats with five kids too many. 
Having day sex because they’re all daughters. 

Bridge2: 2x 
e--------------------------------------I 
b--------------------------------------I 
g----------7-7-------------------------I 
d----------7-7--------7-7----------2---I 
a----------5-5--------7-7----------2---I 
E---------------------5-5----------0---I 
And you’re thinking the same two things. 
Over and over again. 

Chorus: 
W/out guitar 
I am dreaming of a life..like a wall. 

e---------------------------------------------------------------------I 
b---------------------------------------------------------------------I 
g---------------------------------------------------------------------I 
d----------------9-----------9------------7-----------7---------------I 
a------------9-----------9------------7-----------7-------------------I 
E------------7-----------7------------5-----------5-------------------I 
Between the waking world I seek and this infected plane of sleep 

e---------------------------------------------------------------------I 
b---------------------------------------------------------------------I 
g-------9--------9---------9------------------------------------------I 
d---------------------------------------------------------------------I 
a--7---------9--------7--------10/11----------------------------------I 
E---------------------------------------------------------------------I 
Love come like an ax to all this ice and set me free 

e---------------------------------------------------------------------I 
b---------------------------------------------------------------------I 
g---------------------------------------------------------------------I 
d---------9----9---9--9---9---9---9--9----7---7--7---7----7-----------I 
a---------9----9---9--9---9---9---9--9----7---7--7---7----7-----------I 
E---------7----7---7--7---7---7---7--7----5---5--5---5----5-----------I 
There’s a black rewarding book beneath this stiff sheet if you look, carefully 

Intro: 

Verse: 2x 
Noise police ... safe sex antibiotic 

Bridge1: 1x 
For your safety ... keep you from waking. 

Verse: 2x 
Taste test ... astrologically no money down. 

Bridge1: 1x 
For your enjoyment ... installed this camera. 

Bridge2: 2x 
Just keep thinking the same clean thoughts. 
And keep telling yourself its allright. 

Chorus2:w/out distortion 
e---------------------------------------------------------------------I 
b---------------------------------------------------------------------I 
g-----9---9---9---9---9-----------------------------------------------I 
d-----9---9---9---9---9-------9----9------9----9-----9----------------I 
a-----7---7---7---7---7-------9----9------9----9-----9----------------I 
E-----------------------------7----7------7----7-----7----------------I 
I am dreaming of a life and its not the life that’s mine 

e---------------------------------------------------------------------I 
b---------------------------------------------------------------------I 
g-----7---7---7---7---7-----------------------------------------------I 
d-----7---7---7---7---7-------7----7------7----7-----7----------------I 
a-----5---5---5---5---5-------7----7------7----7-----7----------------I 
E-----------------------------5----5------5----5-----5----------------I 
In a stolen car I rocket west out past that jersey line 

Distortion kicks in: 
e---------------------------------------------------------------------I 
b---------------------------------------------------------------------I 
g---------------------------------------------------------------------I 
d----9--9--9--9--9--9--9--9--9-----7--7--7--7--7--7--7--7--7--7-------I 
a----9--9--9--9--9--9--9--9--9-----7--7--7--7--7--7--7--7--7--7-------I 
E----7--7--7--7--7--7--7--7--7-----5--5--5--5--5--5--5--5--5--5-------I 
And the robots in their riot gear glimmer in my rearview mirror 

e---------------------------------------------------------------------I 
b---------------------------------------------------------------------I 
g-------9--------9---------9------------------------------------------I 
d---------------------------------------------------------------------I 
a--7---------9--------7--------10/11----------------------------------I 
E---------------------------------------------------------------------I 
Love came like an ax and had her way with this coarse earth 

e---------------------------------------------------------------------I 
b---------------------------------------------------------------------I 
g---------------------------------------------------------------------I 
d----9--9--9--9--9--9--9--9--9-----7--7--7--7--7--7--7--7--7--7-------I 
a----9--9--9--9--9--9--9--9--9-----7--7--7--7--7--7--7--7--7--7-------I 
E----7--7--7--7--7--7--7--7--7-----5--5--5--5--5--5--5--5--5--5-------I 
And the rich deserving book she was recovered and understood. And I awoke 

Then the song goes off into that guitar mess which is basically variations of 
the intro. 
-------------------------------------------------------------------------------


Текст, аккорды и табулатура для песни "Morning New Disease", исполняет "Jets To Brazil".
Используемые в песне аккорды можно найти в разделе Как брать аккорды. Аккорды для шестиструнной гитары. Другие песни можно найти на нашем сайте, воспользовавшись алфавитным указателем вверху страницы.


 
Ошибка в тексте? Выделите ошибку и нажмите Ctrl+Enter