-------------------------------------------------------------------------------
			     MORNING NEW DISEASE - Jets to Brazil
-------------------------------------------------------------------------------

Tabbed By : leftoverfiller
e-mail: [email protected]

Tuning: E


Intro/Verse: (x4)
G|--------------------------------------|
D|--------------------------------------|
A|-55-555-555-555-555-5s7p-----5s7p-----|
E|-------------------------000------000-|
Morning new disease, charcoal in bed... 

Bridge 1: (x1)
G|--------------------------------------------------------------|
D|------------------7----------------------------7--------------|
A|-7-5-33-0h3-55-55---77-77-57-7-77-33-0h3-55-55---7-77-57-7-77-|
E|--------------------------------------------------------------|
To the scraping of flatware and china...

Verse (x2)

Bridge 2: (x1)
G|------------------------------------------------------------------------|
D|------------------7------------------5-55----------7-77-----5-----------|
A|-7-5-33---55-55-5---7-77-5-7-77-5-33-------3-33-5-5-------77---77-5-77--|
E|--------3---------------------------------------------------------------|
In their milkflats with five kids too many...

Pre-chorus: (x1)
G|--------------------------------------------------------------------------|
D|---s9-7------------------------------------s9-7---------------9---9-------|
A|-5---------------------------------------5----------------------7---7--77-|
E|--------5-555555-0000-7777-9999-10101010--------5-555555-0-00-------------|
And you're thinking the same two things, over and over again...

Chorus: (x1)
G|---------------------------------------------------------|
D|---------------------------------------------------------|
A|-77777777-------------4-5-77777777-------------------4-5-|
E|----------777777s9-55--------------777777s9-55555555-----|
I am dreaming of a life, I am dreaming of waking up...

G|-------------------------------|---------------------------------|
D|-------------------------------|---------------------------------|
A|-7~-5~-3~-7~-------------------|-----------------------------5-7-|
E|-------------------------------|-7-7-7-7-7-7-7-9-5-5-5-5-5-5-----|
Love came like an axe... There's a black rewarding book beneath...

Intro/Verse (x4)
Bridge 1 (x1)
Intro/Verse (x2)
Bridge 2 (x1)
Pre-chorus (x1)

Last chorus: (x1)

G|---------------|----------------------|
D|---------------|----------------------|
A|---------------|------------------4-5-|
E|---------------|-777777s9-5555555-----|

G|-------------|------------------------------|-------------|
D|-------------|------------------------------|-------------|
A|-7~-5~-3~-7~-|------------------------------|-3-5---------|
E|-------------|-7-7-7-7-7-7-7-9-5-5-5-5-5-5--|-------------|
Love came like...And a rich deserving book... And I awoke

Intro/Verse (x4)

Outro:
G|-------|
D|-------|
A|-77-77-|
E|-------|

| /  slide up
|   slide down
| h  hammer-on
| p  pull-off
| ~  vibrato
| +  harmonic
| x  Mute note
===============================================================================


Текст, аккорды и табулатура для песни "Morning New Disease", исполняет "Jets To Brazil".
Используемые в песне аккорды можно найти в разделе Как брать аккорды. Аккорды для шестиструнной гитары. Другие песни можно найти на нашем сайте, воспользовавшись алфавитным указателем вверху страницы.


 
Ошибка в тексте? Выделите ошибку и нажмите Ctrl+Enter