this is MY SUNDAY FEELING by JETHRO TULL
it's on their first record, the ancient THIS WAS
if you don't like this, just come suck my ass!

verse and main riff

e|------------------------------------------------------|
B|---5--3----------5--3----------5--3-------------------|
G|---5--3----------5--3----------5--3-------------------|
D|---5--3---5--5---5--3---5--5---5--3-------------------|
A|----------5--5----------5--5---------7-8--------------|
E|----------3--3----------3--3---------5-6---6--5-4-3---|


e|------------------------------------------------------|
B|---5--3----------5--3----------5--3-------------------|
G|---5--3----------5--3----------5--3-------------------|
D|---5--3---5--5---5--3---5--5---5--3-------------------|
A|----------5--5----------5--5---------7-8--------------|
E|----------3--3----------3--3---------5-6---6--5-4-3---|


riff 2

e|-------------------------------------------------------|
B|-------------------------------------------------------|
G|---0--0--3--3--2--3--0--3---3--0--0--3--3--2--3--0--3--|
D|-------------------------------------------------------|
A|-------------------------------------------------------|
E|-------------------------------------------------------|


there's a solo but i caan't bother to tab it
try some improvisation for it
the chords are C Bb G G

here are the lyrics:


my sunday feeling is coming on over me.
my sunday feeling is coming on over me,
now that the night is over.
got to clear my head so I can see.
till I get to put together, that old feeling won't let me be.
won't somebody tell me where I laid my head last night?
won't somebody tell me where I laid my head last night?
i really don't remember, But with one more cigarette and I think I might.
till I get to put together, well that old feeling can't get me right.

need some assistance, have you listened to what I said?
need some assistance, have you listened to what I said?
oh, I don't feel so good. Need someone to help me to my bed.
till I get to put together, that old feeling is in my head.


Текст, аккорды и табулатура для песни "My Sunday Feeling", исполняет "Jethro Tull".
Используемые в песне аккорды можно найти в разделе Как брать аккорды. Аккорды для шестиструнной гитары. Другие песни можно найти на нашем сайте, воспользовавшись алфавитным указателем вверху страницы.


Слушать онлайн My Sunday Feeling


Jethro TullMy Sunday Feeling на Яндекс.Музыке


 
Ошибка в тексте? Выделите ошибку и нажмите Ctrl+Enter