song:bouree
band:jethro tull

tabbed by : El Kasri Dris ,  [email protected]

 A few weeks ago ,a friend of mine gave me a Jethro Tull album recorded on a
tape .I discovered a great band whose bassist (I don t khnow his name) amazed
me  and now I think that he is one of the greatest bassists in the world (with
Tony Levin,Billy Sheehan,Stu Hamm,the great John Myung of course,...and lets
say ...Flea...why not?)
 I didn t put the rests because there are too much,just listen to the song to 
khow when to play them.
 One last thing ,I didn t manage to find the bass solo.I you find it send it 
to me: the one who manages to find it is really the king of the bass!!!!!!!!
 Enjoy!


G|-----------------------------------5--------------------|
D|---7-------7--------------------7----------7--5---------|
A|-----5--8-----8--7--8--5--7--8--------4-7-------8--5----|
E|--------------------------------------------------------|


G|--------------------------------------5------------------|
D|------7-------7--------------------7-----8-------7-------|
A|---8----5--8-----8--7--8--5--7--8-------------5-----5----|
E|-------------------------------------------5-------------|

 2nd flute enters
G|-------------------------------------5--------------------|
D|---8---------7--------------------7----------7--5---------|
A|-----5-4--8-----8--7--8--5--7--8--------8-5-------8--5----|
E|----------------------------------------------------------|


G|--------------------------------------5----------------------|
D|------7-------7--------------------7-----8-------7-----------|
A|---8----5--8-----8--7--8--5--7--8-------------5-----7---5----|
E|-------------------------------------------5-----------------|

 drums enters
G|---------------------------------5----------------------|
D|---------7--------------------7--------7--5-------------|
A|---5--8-----8--7--8--5--7--8--------7-------8--5---5----|
E|--------------------------------------------------------|



G|---------------------------------5--------------------|
D|---------7--------------------7-----------7-----------|
A|---5--8-----8--7--8--5--7--8--------5--8-----8---5----|
E|------------------------------------------------------|



G|---------------------------------------------------------------|
D|---------7-------------------------------------7---------------|
A|---5--7-----7h4--5--8--5---4p7--5--8--5---4p5-----4--5----8----|
E|---------------------------------------------------------------|


                                              3
G|-----------------------------------------_______--------------|
D|---------7------------------------------------3--7------------|
A|---5--7-----7h4--5--8--5---4p7--5--8--5---4p5-------4----5----|
E|------------------------------------------------------5-------|


 flute solo				          .
G|-------|-------|----.--.----------|----.--.-----9----|
D|---.---|---.---|---11--9--.-------|---11--9--.-------|
A|---5---|---4---|----------9--.----|----------9-------|
E|-------|-------|-------------9----|------------------|


 the groove comes
G|-----------------------------3/53----3/5------| (x4)
D|-------7-------7---------5-5-------5------7----|
A|---5-5-----5-5---5-----------------------------|
E|-----------------------------------------------|

 the groove changes nicely
G|-------7-------------------------------------------------------|
D|-----------7--5------------5---------7----------5---------7----|
A|---5-5----------7---5-3--7----7h5--8-----5-3--7----7h5--8------|
E|---------------------------------------------------------------|


G|----------------------------------------------------------------|
D|-----7--5---------------5---------7------7--5--------------5----|
A|---5-------7--4--5---8------x5--8-----5--------7--5--3--7-------|
E|----------------------------------------------------------------|


G|-------------------------------------------------------|
D|--------5-----------5---------7------7---5--------.----|
A|---x3-3---3---x3--7-----x5--8------5-------7-5----5----|
E|-------------------------------------------------------|

 First bass solo (the nice one ,not the terrific...)
G|--------------------------------|
D|-------------8-7-------5-7------|
A|---5---5-7-8-----8-7-8-----5----|
E|--------------------------------|

		  .		.
G|-----------7---10----------7/12-------------------------|
D|---------7---7----9-------------10----10-11-----9/11----|
A|---5-7-8------------10-------------11-------------------|
E|------------------------10------------------------------|


G|---5-----------------------------|-----------5----------------------------|
D|--------5-6-7-----------5-7------|---------7-----10p7----------9-----9----|
A|-----7--------5-7-8-7-8-----5----|---5-7-8-----5------9-6-7-------7-------|
E|---------------------------------|----------------------------------------|

************************************************************************************

 Then comes the bass solo.It is played with chords and it s really very difficult
to play.I only have a walkman tape player  and my bass is an awefull Fender 
Precision's imitation from Taiwan or something like that.and I forgot to say you
that I play the bass for only 5 or 6 months...So you ll understand that I didnt
manage to find this solo...  :(

************************************************************************************


 play a bass line quite similar to the first one:
G|-------------------------------------------------------------5------------------|
D|---8-------7-----------------7-------7--------------------7---------7--5--------|
A|-----5--8-----8--7--8--5--7----5--8-----8--7--8--5--7--8--------4-7------8-7----|
E|--------------------------------------------------------------------------------|


G|--------------------------------------5------------------|
D|------7-------7--------------------7-----8-------7-------|
A|---8----5--8-----8--7--8--5--7--8-------------5-----5----|
E|-------------------------------------------5-------------|


G|-------------------------------------5--------------------|
D|---8---------7--------------------7----------7--5---------|
A|-----5-4--8-----8--7--8--5--7--8--------8-5-------8--5----|
E|----------------------------------------------------------|


G|--------------------------------------5------------------|
D|------7-------7--------------------7-----8-------7-------|
A|---8----5--8-----8--7--8--5--7--8-------------5-----7----|
E|-------------------------------------------5-------------|


G|-------------------------------------5--------------------|
D|---8---------7--------------------7----------7--5---------|
A|-----5-4--8-----8--7--8--5--7--8--------8-5-------8--5----|
E|----------------------------------------------------------|


G|---------------------------------------------|
D|------7-------7------------------------------|
A|---8----5--8-----8--7--8--5--7--8--x8~~~~----|
E|---------------------------------------------|

  The finish
G|---.---------------------------------------------------------------------|
D|---7---777....7777-(repeat this note many times  I didn t count them)----|
A|-------------------------------------------------------------------------|
E|-------------------------------------------------------------------------|


G|---.----|
D|---6----|
A|--------|
E|--------|



****************************** THAT S IT******************************************


Текст, аккорды и табулатура для песни "Bouree", исполняет "Jethro Tull".
Используемые в песне аккорды можно найти в разделе Как брать аккорды. Аккорды для шестиструнной гитары. Другие песни можно найти на нашем сайте, воспользовавшись алфавитным указателем вверху страницы.


Слушать онлайн Bouree


Jethro TullBouree на Яндекс.Музыке


 
Ошибка в тексте? Выделите ошибку и нажмите Ctrl+Enter