Jethro Tull - Aqualung

E|-----------------------------------------------------------------------------
B|---------------6-6-6--8-8-8--10-10-10----------------------------------------
G|---------------6-6-6--8-8-8--10-10-10----------------------------------------
D|---------------6-6-6--8-8-8--10-10-10-----------------1-1-1-1---4-—4-2---2---
A|-5-----3-4-3---4-4-4--6-6-6---8--8--8---6-8-6-8-9-------------4--------2-0---
E|---3-6--------------------------------------------9--------------------------

Sitting on a park bench eyeing little girls with bad intent
Snot running down his nose, greasy fingers smearing shabby clothes……Hey Aqualung
Drying in the cold sun watching as the frilly paintes run……Hey Aqualung
Feeling like a dead duck spitting out pieces of his broken luck……Hey Aqualung



Gm            F					    C
Sun streaking cold on an old man wandering lonely
Cm               Gm          F
Taking time, the only way he knows

Leg hurting bad as he bends to pick a dog-end
He goes down to the bog and warms his feet
Feeling alone, the army’s up the road
Salvation a la mode and a cup of tea
Aqualung, my friend don’t you start away uneasy
You poor old sod, you see, it’s only me


Gm                F                      Gm
Do you still remember December’s foggy freeze
                         F						Gm
When the ice that clings on to your beard is screaming agony


Gm                           F					   C
And you snatch your rattling last breaths with deep-sea-diver sounds
Cm                         Gm               F
And the flowers bloom like madness in the spring

Sun streaking cold on an old man wandering lonely
Taking time, the only way he knows
Leg hurting bad as he bends to pick a dog-end
He goes down to the bog and warms his feet
Feeling alone, the army’s up the road
Salvation a la mode and a cup of tea
Aqualung, my friend don’t you start away uneasy
You poor old sod, you see, it’s only me


Gm F C Cm Gm F
Gm F Gm F Gm F……Gm F


C#  D#    F      Gm
  Oh……Aqualung


E|--------------------------------------------------------------------------
B|-3-6/8/10-------------------------------------------------8--------8------
G|-------------------------------------------------5----------8--------7----
D|--------------8-7-------------5/7--------------5---8----------10-------8--
A|------------------8---------8--------------5-7----------------------------
E|--------------------8---6-8------------8-8--------------------------------

E|---------------------------------------------------------
B|---------------------------------------------------------
G|-----------------------------------------7-12^-----------
D|---------5-7/10-10-7-10-7-10-7------7-10-------10----10--
A|-----6-8-----------------------8/10---------------12-----
E|-6-8-----------------------------------------------------

E|-------------------------------------------------------------
B|-------------------------------------------------------------
G|-------------------------------------------------------------
D|----8-10------------8-8-8-10-8----8-----8-10/12/10-8---------
A|-10------8----8-10-------------10--10----------------10------
E|-----------10------------------------------------------------

E|------------------------------------------------------------------
B|------------------------------------------------------------------
G|------------------------------------------------------------------
D|-3-------------5---5-8-5--8-8-8--5-8-5—8/12-------12-8-10-8-------
A|---5-3---3-5/8---8------------------------------8-----------8-----
E|-------6-------------------------------------10---------------10--

E|--------------------------------------------------------------------------------------
B|--------------------------------------------------------------------------------------
G|----------------10-----12------------------------------------10----10-10-12-10-10-----
D|------8-10/12------10-----12-------------5-7/10-10-10--10/12----10----------------12--
A|-8-10-------------------------------8-10----------------------------------------------
E|-------------------------------8-10---------------------------------------------------

E|----------------------------------------------------------
B|----------------------------------------------------------
G|--------------------------12-10---------------------------
D|-12-10-10--12-10----10-12-------12-10---10----10-12-------
A|-----------------12------------------------12-------------
E|----------------------------------------------------------

E|--------------------------------------------------------------------------
B|--------------------------------------------------------------------------
G|-----5^----5^---5----------------------5-7/10/12-12-12-12-12---10-12-10---
D|-5-8-----8----8---8-5---------5-8-5-8---------12-12-12-12-12--------------
A|----------------------5---5-8---------------------------------------------
E|--------------------------------------------------------------------------

E|-10----10------------------------------------------------------------------------------------
B|-------------------8-11-10-8-11-10-8-11-10-8-------------------------------------------------
G|----12----10-12------------------------------10---7------------------------------------------
D|----------------------------------------------------10-8-10-8-10-8----8--------------8-10-0--
A|-------------------------------------------------------------------10---10-8----8-10---------
E|-----------------------------------------------------------------------------10--------------

E|--------------------------------------------------13-------13-------13-------
B|--------------------------------------------13-15----13-15----13-15----15----
G|---------------------------------10-12/14------------------------------------
D|-----------5-7/10-10-10—10/12-12---------------------------------------------
A|------8-10-------------------------------------------------------------------
E|–8-10------------------------------------------------------------------------


Текст, аккорды и табулатура для песни "Aqualung", исполняет "Jethro Tull".
Используемые в песне аккорды можно найти в разделе Как брать аккорды. Аккорды для шестиструнной гитары. Другие песни можно найти на нашем сайте, воспользовавшись алфавитным указателем вверху страницы.


Слушать онлайн Aqualung


Jethro TullAqualung на Яндекс.Музыке


 
Ошибка в тексте? Выделите ошибку и нажмите Ctrl+Enter