-------------------------------------------------------------------------------
			     ROLLOVER DJ - Jet
-------------------------------------------------------------------------------

Tabbed By : Rick
e-mail: [email protected]

Tuning: Standard (EADG)

Intro
G|----------------------------------------------||
D|--10h12----10h12----10h12-12-12-10------------||
A|-----------------------------------12-10-8----||
E|----------------------------------------------||

G|--------------------------------------||
D|--------------5-5---------------------||
A|--5-5-3-5-3-3------5-5-3-5-3-3--------||
E|-------------------------------3-3----||

VERSE:
Got your rounds goin' round in my head...
G|----------------------------------------------------------||
D|----------------------------------------------------------||
A|--5-5-3-5-2-2-3-3--5-5-3-5-2-2-3-3--5-5-3-5-2-2-3-3-------||
E|-----------------------------------------------------5----||

I wanna move but it dont feel right...
G|----------------------------------------------------------||
D|----------------------------------------------------------||
A|--5-5-3-5-2-2-3-3--5-5-3-5-2-2-3-3--5-5-3-5-2-2-3-3-------||
E|-----------------------------------------------------5----||


CHORUS:
HEY! rollover DJ!...
G|----------------------------------------------------||
D|----------------------3-3-3-3-3-5--5-5-3------------||
A|--5-5-5-5-5-3-3-3-3-3--------------------5-5-3-3----||
E|----------------------------------------------------||

HEY! who cares what you play?...
G|----------------------------------------------------||
D|----------------------3-3-3-3-3-5--5-5-3------------||
A|--5-5-5-5-5-3-3-3-3-3--------------------5-5-3-3----||
E|----------------------------------------------------||

HEY! rollover DJ if you dont mind...
G|-------------------------------------------------------||
D|------------------3-3-3-3-3-3-3-3-5-5-5-5-5-5-5-5-5----||
A|--5-5-5-5-5-5-5-5--------------------------------------||
E|-------------------------------------------------------||

VERSE 2:
G|------------------------------------------------||
D|--10h12-12-12-12-12-12-10-10-10-----------------||
A|--------------------------------12-10-10-8-8----||
E|------------------------------------------------||

G|------------------------------------------------||
D|--10h12-12-12-12-12-12-10-10-10-----------------||
A|--------------------------------12-10-10-8-8----||
E|------------------------------------------------||

G|----------------------------------------------------------||
D|----------------------------------------------------------||
A|--5-5-3-5-2-2-3-3--5-5-3-5-2-2-3-3--5-5-3-5-2-2-3-3-------||
E|-----------------------------------------------------5----||

CHORUS:
G|----------------------------------------------------||
D|----------------------3-3-3-3-3-5--5-5-3------------||
A|--5-5-5-5-5-3-3-3-3-3--------------------5-5-3-3----||
E|----------------------------------------------------||

G|----------------------------------------------------||
D|----------------------3-3-3-3-3-5--5-5-3------------||
A|--5-5-5-5-5-3-3-3-3-3--------------------5-5-3-3----||
E|----------------------------------------------------||

G|-------------------------------------------------------||
D|------------------3-3-3-3-3-3-3-3-5-5-5-5-5-5-5-5-5----||
A|--5-5-5-5-5-5-5-5--------------------------------------||
E|-------------------------------------------------------||

BREAK:
G|-------------------------------------||
D|-------------------------------------||
A|------------3----/8-8-8-8-8-8-8-8----||
E|--5----3-----------------------------||

GUITAR SOLO:
G|---------------------------------------------||
D|---12-12-12-10---------10-10-10-8------------||
A|---------------12-10-8------------10-8-------||
E|---------------------------------------10----||

G|--------------------------------------||
D|--------------------------------------||
A|--10-10-10-8h10-10-10-10-10-8-8-10----||
E|--------------------------------------||

G|---------------------------------------------||
D|---12-12-12-10---------10-10-10-8------------||
A|---------------12-10-8------------10-8-------||
E|---------------------------------------10----||

G|-------------------------------------------||
D|-------------------------------------------||
A|--10-10-10-8h10-10-10-10-10-10-10-10-10----||
E|-------------------------------------------||

G|-------------------------------------------------||
D|-----------------3-3-3-3-3-3-3--5-5--5-5--5-5----||
A|--5-5-5-5-5-5-5----------------------------------||
E|-------------------------------------------------||


CHORUS:
G|----------------------------------------------------||
D|----------------------3-3-3-3-3-5--5-5-3------------||
A|--5-5-5-5-5-3-3-3-3-3--------------------5-5-3-3----||
E|----------------------------------------------------||

G|----------------------------------------------------||
D|----------------------3-3-3-3-3-5--5-5-3------------||
A|--5-5-5-5-5-3-3-3-3-3--------------------5-5-3-3----||
E|----------------------------------------------------||

G|-----------------------------------------------------------------------||
D|------------------3-3-3-3-3-3-3-3-5-5-5-5-5-5-5-5-5-5-5-5-5-5-5-5-3----||
A|--5-5-5-5-5-5-5-5------------------------------------------------------||
E|-----------------------------------------------------------------------||

G|-----------------------------------------------------------------------||
D|------------------3-3-3-3-3-3-3-3-5-5-5-5-5-5-5-5-5-5-5-5-5-5-5-5-3----||
A|--5-5-5-5-5-5-5-5------------------------------------------------------||
E|-----------------------------------------------------------------------||

G|-----------------------------------------------------------------------||
D|------------------3-3-3-3-3-3-3-3-5-5-5-5-5-5-5-5-5-5-5-5-5-5-5-5-3----||
A|--5-5-5-5-5-5-5-5------------------------------------------------------||
E|-----------------------------------------------------------------------||

OUTRO:
G|--------------------------------------||
D|--------------5-5---------------------||
A|--5-5-3-5-3-3------5-5-3-5-3-3--------||
E|-------------------------------5-5----||

[www.desperate-measures.tk]

| /  slide up
| h  hammer-on
===============================================================================


Текст, аккорды и табулатура для песни "Rollover Dj", исполняет "Jet".
Используемые в песне аккорды можно найти в разделе Как брать аккорды. Аккорды для шестиструнной гитары. Другие песни можно найти на нашем сайте, воспользовавшись алфавитным указателем вверху страницы.


 
Ошибка в тексте? Выделите ошибку и нажмите Ctrl+Enter