-------------------------------------------------------------------------------
			     LAZY GUN - Jet
-------------------------------------------------------------------------------

Tabbed By : Rick
e-mail: [email protected]

Tuning: Standard (EADG)

verse:
G|------------------|---------------------|
D|---------X a bunch|------------0-3-3-3-3|
A|-0-0--------------|--0-0----------------|
E|-----1H3-1--------|------1H3-1----------|

G|--2~--------0~----|------------------|
D|------------------|---3~-------0~----|
A|------------------|------------------|
E|------------------|------------------|
chorus: listen closely 

G|------------------|------------------|------------------|
D|------0-----------|--0---------------|------------------|
A|--0-2-------------|----2----0~-------|----2-------------|
E|------------------|------------------|-------3~--3-2-1-0|

Chorus
G|------------------|------------------|------------------|
D|--------0----0----|------------------|------------------|
A|--0--2----------2-|--2--0------------|-2----------------|
E|------------------|---------5------|----3-------------|

G|------------------|------------------|------------------|
D|-----0-0-0-0-0-0--|--0---------------|------------------|
A|-0-2--------------|----2---2--0------|2-----------------|
E|------------------|------------------|--3-4---3~--------|

G|--------------------------------|-----------------------|
D|--------------------------------|----------0~-----------|
A|--------------------------------|--0~-------------------|
E|---2--2--22-2--2---3--3--33-3-3-|-----------------------|


the first and second chorus' have little changes to them at the end but thats basically it

[www.desperate-measures.tk]

|   slide down
| H  hammer-on
| ~  vibrato
===============================================================================


Текст, аккорды и табулатура для песни "Lazy Gun", исполняет "Jet".
Используемые в песне аккорды можно найти в разделе Как брать аккорды. Аккорды для шестиструнной гитары. Другие песни можно найти на нашем сайте, воспользовавшись алфавитным указателем вверху страницы.


 
Ошибка в тексте? Выделите ошибку и нажмите Ctrl+Enter