Artist:Jet
Song:Are You Gonna Be My Girl
Album:Bet Born
*Level:4/10*
Tabbed By [email protected] .If you have Any correction of this song or comment please mail me
[email protected]

I'm 90% sure it's right but you never know...

Standart Tunnin EADGBE

Intro: (After Bass Solo)

Guitar 1 & 2 together.

e---------------------|
B---------------------|
G--------5-7^-7-5-----|
D------7-5-7^-7-5-7---|
A------7----------7---|
E---------------------|

e-5-5-5-5-5-5-5-5-5-5-5-5-5-5-5-5-5-5-5-5-5-5-5-5-5-5-|
B-5-5-5-5-5-5-5-5-5-5-5-5-5-5-5-5-5-5-5-5-5-5-5-5-5-5-|
G-6-6-6-6-6-6-6-6-6-6-6-6-6-6-6-6-6-6-6-6-6-6-6-6-6-6-|    
D-7-7-7-7-7-7-7-7-7-7-7-7-7-7-7-7-7-7-7-7-7-7-7-7-7-7-|
A-7-7-7-7-7-7-7-7-7-7-7-7-7-7-7-7-7-7-7-7-7-7-7-7-7-7-|
E-5-5-5-5-5-5-5-5-5-5-5-5-5-5-5-5-5-5-5-5-5-5-5-5-5-5-|

Gooo!!!         (Both Guitars are playing this.)





e----------------|
B----------------|
G---5-7^-7-5-----|
D-7-5-7^-7-5-7---|
A-7----------7---|
E----------------|

e----------------------------------------|-5-5-5-5-5-5-5-5-|
B----------------------------------------|-5-5-5-5-5-5-5-5-|
G----------------------------------------|-6-6-6-6-6-6-6-6-|
D----------------------------------------|-7-7-7-7-7-7-7-7-|
A----------------------------------------|-7-7-7-7-7-7-7-7-|
E----------------------------------------|-5-5-5-5-5-5-5-5-|
1,2,3 Take my hand and come with me ...

                
e-----------------------------------------------|-5-5-5-5-5-5-5-5-|
B-----------------------------------------------|-5-5-5-5-5-5-5-5-|
G-----------------------------------------------|-6-6-6-6-6-6-6-6-|
D-----------------------------------------------|-7-7-7-7-7-7-7-7-|
A-----------------------------------------------|-7-7-7-7-7-7-7-7-|
E-----------------------------------------------|-5-5-5-5-5-5-5-5-|
I say y'look so fine i really want to mak u mine

e-----------------------------------------------|-5-5-5-5-5-5-5-5-|
B-----------------------------------------------|-5-5-5-5-5-5-5-5-|
G-----------------------------------------------|-6-6-6-6-6-6-6-6-|
D-----------------------------------------------|-7-7-7-7-7-7-7-7-|
A-----------------------------------------------|-7-7-7-7-7-7-7-7-|
E-----------------------------------------------|-5-5-5-5-5-5-5-5-|
4,5,6 come on and get your kicks ...
                    
                  BRIDGE:
e----------------|-----------------|-----------------|
B----------------|-----------------|-----------------|
G----5-7^-7-5----|-7-7-7-----------|-7-7-7-----------|
D--7-5-7^-7-5-7--|-7-7-7-7-7-7-7---|-7-7-7-7-7-7-7---|
A--7----------7--|-5-5-5-7-7-7-7---|-5-5-5-7-7-7-7---|
E----------------|-------5-5-5-5---|-------5-5-5-5---|
                   Big BLack Boots , long brown hair 

e-----------------|-----------------|
B-----------------|-----------------|
G-7-7-7-----------|-7-7-7-----------|
D-7-7-7-7-7-7-7---|-7-7-7-7-7-7-7---|
A-5-5-5-7-7-7-7---|-5-5-5-7-7-7-7---| 
E-------5-5-5-5---|-------5-5-5-5---| 
 sh's so sweet... Get back stare !

CHORUs: X2!
e-------------------------------------------------------------|
B-------------------------------------------------------------|
G---------------------5-5-5-5-5-5-5-5-5-5-7-7-7-7-7-7-7-7-7-7-|
D-7-7-7-7-7-7-7-7-7-7-5-5-5-5-5-5-5-5-5-5-7-7-7-7-7-7-7-7-7-7-|
A-7-7-7-7-7-7-7-7-7-7-3-3-3-3-3-3-3-3-3-3-5-5-5-5-5-5-5-5-5-5-|
E-5-5-5-5-5-5-5-5-5-5-----------------------------------------|
Well I could see ,     You home with me ,     But you were 

e---------------------|
B---------------------|
G---------------------|
D-7-7-7-7-7-7-7-7-7-7-| X2
A-7-7-7-7-7-7-7-7-7-7-|
E-5-5-5-5-5-5-5-5-5-5-|
with another man yeah !




e--------------------3-3~~----------------------------------------|
B--------------------3-3~~----------------------------------------|
G--7-7-7-(7)-(7)-(7)-4-4~~----------------------------------------|
D--7-7-7-(7)-(7)-(7)-5-5~~----------------------------------------|
A--5-5-5-(5)-(5)-(5)----------------------------------------------|
E-----------------------------------------------------------------| 
          (quikly!) , (Let Ring !) I said are you gonna be my girl 

(END OF FIRST PART)

e------------------------------|------------------------|
B------------------------------|------------------------|
G------------------------------|-7^-5-------------------|
D--7-7-7-7-7-7-7-7-7-7-7-7-7-7-|-7^-5-7-7-7-7-7-7-7-7-7-|
A--7-7-7-7-7-7-7-7-5-5-5-5-5-5-|------7-7-7-7-7-7-7-7-7-|
E--5-5-5-5-5-5-5-5-5-5-5-5-5-5-|--------5-5-5-5-5-5-5-5-|

e-------------------------------|
B-------------------------------|
G-------------------------------|
D-7-7-7-7-7-7-7-7-7-7-7-7-7-7-7-|
A-7-7-7-7-7-7-7-7-7-7-7-7-7-7-7-|
E-5-5-5-5-5-5-5-5-5-5-5-5-5-5-5-|





e----------------|-----------------------------------------|
B----------------|-----------------------------------------|
G----5-7^-7-5----|-----------------------------------------|
D--7-5-7^-7-5-7--|-----------------------------------------|
A--7----------7--|-----------------------------------------|
E----------------|-----------------------------------------|
 		  1,2,3 Take my hand and come with me ...

Then repeat the FIRST PART!and the CHORUS


PART TWO AND SOLO :

e-------------------------------|-----------------------------|
B-------------------------------|-----------------------------|
G-------------------------------|-----------------------------|
D-------------------------------|-7-7-7-7-7-7-7-7-7-7-7-7-7-7-|
A-------------------------------|-7-7-7-7-7-7-7-7-7-7-7-7-7-7-|
E-------------------------------|-5-5-5-5-5-5-5-5-5-5-5-5-5-5-|

I said are you gonna be my girl  (Only Guitar 1's playing !)

Guitar 2:

e-------------------------------------|
B-------------------------------------|
G-------------------------------------|
D-10-10-10-10-10-10-10-10-10-10-10-10-|
A-8--8--8--8--8--8--8--8--8--8--8--8--|
E-------------------------------------|

Solo:

e---------10-----------12----------------------------------------|
B-12^-10----10-12^-10----10-12^-10-8-8-8-10-10-10-8-8-8-10-10-10-|
G----------------------------------------------------------------|
D----------------------------------------------------------------|
A----------------------------------------------------------------| 
E----------------------------------------------------------------|


Текст, аккорды и табулатура для песни "Are You Gonna Be My Girl", исполняет "Jet".
Используемые в песне аккорды можно найти в разделе Как брать аккорды. Аккорды для шестиструнной гитары. Другие песни можно найти на нашем сайте, воспользовавшись алфавитным указателем вверху страницы.


 
Ошибка в тексте? Выделите ошибку и нажмите Ctrl+Enter