TUNING: E B E G# B E (E chord)
CAPO on 2nd fret

Part A: Verse

e ||------------------|-----------------|
B ||------------------|-----------------|
G#||-----3------3-----|-----1-----1-----| (repeat)
E ||---0------0-----0-|---0-----0-----0-|
B ||-4------4-----4---|-2-----2-----2---|
E ||------------------|-----------------|

e |-----------------|-----------------||
B |-----------------|-----------------||
G#|-----3-----3-----|-----1-----1-----||
E |---2-----2-----2-|---0-----0-----0-||
B |-0-----0-----0---|-2-----2-----2---||
E |-----------------|-----------------||

Part B: Pre-Chorus

e ||-------------|  |-----------------||
B ||-------------|  |-----------------||
G#||-----1-----3-| 4 |-----0-----0-----||
E ||---2-----4---| - |---5-----5-----5-||
B ||-2-----4-----| 4 |-5-----5-----5---||
E ||-------------|  |-----------------||

repeat 3X

Part C: Chorus
(E chord)
e ||-----------------|-----------------||
B ||-----------------|-----------------||
G#||-----0-----0-----|-----0-----0-----||
E ||---0-----0-----0-|---0-----0-----0-||
B ||-----------------|-----------------||
E ||-0-----0-----0---|-0-----0-----0---||

or

e ||---------0-------|---------0-------||
B ||-----------0---0-|-----------0---0-|| (or any other variation)
G#||-----0-------0---|-----0-------0---||
E ||---0---0---------|---0---0---------||
B ||-----------------|-----------------||
E ||-0---------------|-0---------------||

Part D: Bridge
e ||------0-------0---|-----------------||
B ||--------0-------0-|-----3-------3---||
G#||------------------|-------1-------1-||
E ||---2--------2-----|---2-------2-----||
B ||-0--------0-------|-0-------0-------||
E ||------------------|-----------------||

repeat 5X

Intro:
play parts A, B, and C two times, second time with recorder solo

Part A:
The summer had inhaled and held its breath too long
The winter looked the same as if it never had gone
And through an open window where no curtain hung

Part B:
I saw you I saw you
Comin'...
Part C:
...back to me

One begins to read between the pages of a look
The shape of sleepy music and suddenly you're hooked
Through the rain upon the trees that kisses on the run

I saw you I saw you
Comin' back to me

Part D: (Bridge)
You can't stay and live my way
Scatter my love like leaves in the wind
You always say you won't go away
But I know what it always has been
...it always has been

A transparent dream beneath an occasional sigh
Most of the time I just let it go by
Now I wish it hadn't begun

I saw you I saw you
Comin' back to me

Strolling the hills overlooking the shore
I realize I've been here before
The shadow in the mist could have been anyone

I saw you I saw you
Comin' back to me

Small things like reasons are put in a jar
Whatever happened to wishes wished on a star
Was it just something that I made up for fun

I saw you I saw you
Comin' back to me

play parts A, B, and C (with recorder solo) and fade out

(from Surrealistic Pillow, 1967)
(sent by Harlan at [email protected])
NOTE: this is basically plagarized from the previous version except that I
discovered the song is in an alternate tuning. I am very unsure about
the bridge.
I hope some can improve upon it!


Текст, аккорды и табулатура для песни "Comin Back To Me", исполняет "Jefferson Airplane".
Используемые в песне аккорды можно найти в разделе Как брать аккорды. Аккорды для шестиструнной гитары. Другие песни можно найти на нашем сайте, воспользовавшись алфавитным указателем вверху страницы.


 
Ошибка в тексте? Выделите ошибку и нажмите Ctrl+Enter