Tabbed By Adam Finn  ([email protected])
          Band: Jebediah
          Song: In Orbit  (Of someday Shambles Album)
          
          This is my first tab by an awsome band from Aus.
          It is played with two guitars
          
          Intro-Wired Guitar Noises
          
          Verse-Rhythm /lead plays little arpeggios
          
          E|------------------------------|---------------------------
          B|------------------------------|---------------------------
          G|------------------------------|Last time play this--------
          D|-x-x-9---x-x-5---x-x-7---x-x-3|-x-x-3-3-3-3-3-3-3-3-3-3-3-
          A|-x-x-9---x-x-5---x-x-7---x-x-3|-x-x-3-3-3-3-3-3-3-3-3-3-3-
          E|-x-x-7---x-x-3---x-x-5---x-x-1|-x-x-1-1-1-1-1-1-1-1-1-1-1-
          
          Chours-Rhythm & Lead play the same
          
          E|----------------------------------------------------------
          B|----------------------------------------------------------
          G|-9-x-x-9--------------------------------------------------
          D|-9-x-x-9---10-10-10-10-10-10---7-7-7-7-7-7----------------
          A|-7-x-x-7---10-10-10-10-10-10---7-7-7-7-7-7----------------
          E|------------8--8--8--8--8--8---5-5-5-5-5-5----------------
          
          After chours/Bridge   Rhythm
          E|----------------------------------------------------------
          B|----------------------------------------------------------
          G|-9-x-x-9-------------------------7-7b-7-------------------
          D|-9-x-x-9---7-7-7---9---10-10-10---------------------------
          A|-7-x-x-7---7-7-7---9---10-10-10---------------------------
          E|-----------5-5-5---7----8--8--8---------------------------
          
          E|----------------------------------------------------------
          B|----------------------------------------------------------
          G|----------------------------------------------------------
          D|-7-7-7---9---10---5---3-3---5-5---------------------------
          A|-7-7-7---9---10---5---3-3---5-5---------------------------
          E|-5-5-5---7----8---3---1-1---3-3---------------------------
          
          Solo
          
          E|-0-0-12-0-0-0-12-0-0-0-12-0-0-0-12------------------------
          B|-----------------------------------12-----12--------------
          G|--------------------------------------13~----13b-13~------
          D|----------------------------------------------------------
          A|------Repeat a few times----------------------------------
          E|----------------------------------------------------------


Текст, аккорды и табулатура для песни "In Orbit", исполняет "Jebediah".
Используемые в песне аккорды можно найти в разделе Как брать аккорды. Аккорды для шестиструнной гитары. Другие песни можно найти на нашем сайте, воспользовавшись алфавитным указателем вверху страницы.


 
Ошибка в тексте? Выделите ошибку и нажмите Ctrl+Enter