#-----------------------------------------------------------------------------#
#-- File created with Instab - http://www.pconline.com/~smcarey/instab.html --#
#-----------------------------------------------------------------------------#

Author/Artist: Jebediah
Title: Harpoon
Album: Slightly Oddways
Transcribed by: Vinnie
Email: [email protected]

Structure: intro 1- intro 2- verse- chorus-interlude------|
distorted bit- verse- chorus- interlude 2- distorted bit--|
bridge- verse- chorus- outro.

--0-0-0--2-2--2-2-2--2-2--|----|----------------------------------------------|
--0-0-0--2-2--4-4-4--4-4--|----|----------------------------------------------|
--1-1-1--3-3--4-4-4--4-4--|----|----------------------------------------------|
--2-2-2--4-4--4-4-4--4-4--|-x2-|----------------------------------------------|
--2-2-2--4-4--2-2-2--0-0--|----|----------------------------------------------|
--0-0-0--2-2--------------|----|----------------------------------------------|
  E      F#   B      B/A        Intro Part 1 Guitar 1|Part 2-Repeat

--------------------2-2-2-2----------------------------2--|-------------------|
--4-4-4-4-4-4-4-4-4---------4-4---------5-5---4-----------|-------------------|
--------------------------------4-4-4-4-----4-------4-----|-------------------|
----------------------------------------------------------|-------------------|
----------------------------------------------------------|-------------------|
----------------------------------------------------------|-------------------|
 Guitar 2 Part 2

-------------------------|----|-------------------------|----|----------------|
-------------------------|----|-------------------------|----|----------------|
--4-4-----------9-9-9-9--|----|--4-4--------------------|----|----------------|
--4-4----4-4----9-9-9-9--|-x4-|--4-4----4-4----2-2-2-2--|-x4-|----------------|
--2-2----4-4----7-7-7-7--|----|--2-2----4-4----2-2-2-2--|----|----------------|
---------2-2-------------|----|---------2-2----0-0-0-0--|----|----------------|
 Verse Guitar 1                Guitar 2

--------------------------|----|----------------------------------------------|
--------------------------|----|----------------------------------------------|
---------9-9--4-4-4--6-6--|----|-------9-9-9-9-------9-9-9-9-------9-9-9-9--4-|
--6-6-6--9-9--4-4-4--6-6--|-x3-|--6-6--9-9-9-9--6-6--9-9-9-9--6-6--9-9-9-9--4-|
--6-6-6--7-7--2-2-2--4-4--|----|--6-6--7-7-7-7--6-6--7-7-7-7--6-6--7-7-7-7--2-|
--4-4-4-------------------|----|--4-4-----------4-4-----------4-4-------------|
 Chorus Guitar 1

--------------------------|----|----------------------------------------------|
--------------------------|----|----------------------------------------------|
--------------4-4-4--6-6--|----|--------------------------------------------4-|
--6-6-6--2-2--4-4-4--6-6--|-x3-|--------------------------------------------4-|
--6-6-6--2-2--2-2-2--4-4--|----|--6-6--2-2-2-2--6-6--2-2-2-2--6-6--2-2-2-2--2-|
--4-4-4--0-0--------------|----|--4-4--0-0-0-0--4-4--0-0-0-0--4-4--0-0-0-0----|
 Chorus Guitar 2

--0-0-0--2-2--2-2-2--2-2--|----|----------------------------------------------|
--0-0-0--2-2--4-4-4--4-4--|----|----------------------------------------------|
--1-1-1--3-3--4-4-4--4-4--|----|----------------------------------------------|
--2-2-2--4-4--4-4-4--4-4--|-x4-|----------------------------------------------|
--2-2-2--4-4--2-2-2--0-0--|----|----------------------------------------------|
--0-0-0--2-2--------------|----|----------------------------------------------|
 Interlude 1 Guitar 1

-----------------------------------------------------------------------------|
------------------12---------------------------------------------------------|
--8-8-8-8-11-8-11----11--8-8-11-8---11-9-8--------------8-9-8--11-8-8-8-11---|
----------------------------------9--------9-9/11-9-9-9----------------------|
-----------------------------------------------------------------------------|
-----------------------------------------------------------------------------|
 Guitar 2

--------------------|----|----------------|----|--------------------|---------|
--------------------|----|-----------12b--|----|--------------------|---------|
--4-4--2-2-2-2-2-2--|----|----------------|----|-----------6b7r6-4--|---------|
--4-4--2-2-2-2-2-2--|-x4-|--9-9--7-7------|-x3-|--9-9--7-7----------|---------|
--2-2--0-0-0-0-0-0--|----|--9-9--7-7------|----|--9-9--7-7----------|---------|
--------------------|----|--7-7--5-5------|----|--7-7--5-5----------|---------|
 Distorted Bit Guitar 1|Guitar 2

--0-0-0--2-2--2-2-2--2-2--|----|----------------------------------------------|
--0-0-0--2-2--4-4-4--4-4--|----|----------------------------------------------|
--1-1-1--3-3--4-4-4--4-4--|----|----------------------------------------------|
--2-2-2--4-4--4-4-4--4-4--|-x4-|----------------------------------------------|
--2-2-2--4-4--2-2-2--0-0--|----|----------------------------------------------|
--0-0-0--2-2--------------|----|----------------------------------------------|
 Interlude 2 Guitar 1

------------------------------------------------------------------------------|
---------------------12----12-------------------------------------------------|
--------8h9p8-8h9-11----11----11--8-11-9-8--11--------------------------------|
------9--------------------------------------------------------8-8h9p8--------|
--7h9------------------------------------------9-11-9-9-9-11-9---------11-9---|
------------------------------------------------------------------------------|
 Guitar 2

------------|-----------------------------------------------------------------|
------------|-----------------------------------------------------------------|
------------|-----------------------------------------------------------------|
-11-11-11b--|-----------------------------------------------------------------|
------------|-----------------------------------------------------------------|
------------|-----------------------------------------------------------------|
 ^Distortion on Here

---------------------------------------------|----|---------------------------|
---------------------------------------------|----|---------------------------|
-------9-9--6-6-6-6--4-4---------------------|----|--4-4-4-4------------------|
--6-6--9-9--6-6-6-6--4-4--2-2--4-4-4-4--2-2--|-x2-|--4-4-4-4--2-2--4-4-4-4--2-|
--6-6--7-7--4-4-4-4--2-2--2-2--4-4-4-4--2-2--|----|--2-2-2-2--2-2--4-4-4-4--2-|
--4-4---------------------0-0--2-2-2-2--0-0--|----|-----------0-0--2-2-2-2--0-|
 Bridge Guitars 1&2

-----|----|-----------------------------------------|-------------------------|
-----|----|-----------------------------------------|-------------------------|
-----|----|--4-4-4-4--------------------------------|-------------------------|
--2--|-x2-|--4-4-4-4--2-2--4-4-4-4-4-4-4-4-4-4-4-4--|-------------------------|
--2--|----|--2-2-2-2--2-2--4-4-4-4-4-4-4-4-4-4-4-4--|-------------------------|
--0--|----|-----------0-0--2-2-2-2-2-2-2-2-2-2-2-2--|-------------------------|


--0-0-0--2-2--2-2-2--2-2--|----|--0-0-0--2--|---------------------------------|
--0-0-0--2-2--4-4-4--4-4--|----|--0-0-0--2--|---------------------------------|
--1-1-1--3-3--4-4-4--4-4--|----|--1-1-1--3--|---------------------------------|
--2-2-2--4-4--4-4-4--4-4--|-x3-|--2-2-2--4--|---------------------------------|
--2-2-2--4-4--2-2-2--0-0--|----|--2-2-2--4--|---------------------------------|
--0-0-0--2-2--------------|----|--0-0-0--2--|---------------------------------|
 Outro Guitar 1


Текст, аккорды и табулатура для песни "Harpoon", исполняет "Jebediah".
Используемые в песне аккорды можно найти в разделе Как брать аккорды. Аккорды для шестиструнной гитары. Другие песни можно найти на нашем сайте, воспользовавшись алфавитным указателем вверху страницы.


 
Ошибка в тексте? Выделите ошибку и нажмите Ctrl+Enter