______________
  / Jason Mraz / I think this is simply a beautiful, classical love song,
 / Bella Luna / possibly inspired from a moonlight walk. Almost every line
 / Mr. A-Z   / here is expressing open admiration; as such there isn't any
/_____________/ deep meaning in the lyrics, it's just the language of a lover.
 

 I've also made a Guitar Pro version of the Guitar fills & solo.       
 This is the link to it:                                  
 www.ultimate-guitar.com/tabs/j/jason_mraz/bella_luna_solo_guitar_pro.htm 


 Chords:
   Am Am7 Bdim7 Fmaj7#11 E   Am9 Bdim7/11 Dm9   Dm G  C  F  E
e:---5----5-------------0------0-- --0-----0--------0-- --5---3-------1---0---:
B:---5----5-----3-------0------0-- --0-----3--------6-- --6---3---5---1---0---:
G:---5----5-----2-------2------1-- --5-----2--------5-- --7---4---5---2---1---:
D:---7----5-----3-------3------2-- --7-----3--------7-- --7---5---5---3---2---:
A:---7----7-----2----------------- --0-----2--------5-- --5---5---3---3---2---:
E:---5----5----------------------- -------------------- ------3-------1---0---:


 Intro:
| Am | Am7 | Bdim7 | Bdim7 |

| Bdim7 | Fmaj7#11 E | Am | Am |

 Electric guitar fill
---------|-----------|-------------|--------------|--------------|
-1p0-----|-----------|-----1p0-----|--------------|--------------|
-----2-0-|-0h2~------|---------2-0-|-2s4----5---4-|-----4--5--7--|
---------|-----------|-------------|--------------|--------------|
---------|-----------|-------------|--------------|--------------|
---------|-----------|-------------|--------------|--------------|

|------------------|-----------------|-----------|------------|
|------------------|-----------------|-----------|------------|
|-(7)-4----4h5s10-|--------9--7--5h7|s9~~-------|-(9)-------|
|------------------|-----------------|-----------|------------|
|------------------|-----------------|-----------|------------|
|------------------|-----------------|-----------|------------|



 Verse:
| Am9 | Am9 | Bdim7/11 | Bdim7/11 |

| Bdim7/11 | Bdim7/11 | Am9 | Am9 |

| Dm9 | Dm9 | Am9 | Am9 |

| Bdim7 | Bdim7 | E | E |



 Interlude:
||: Am7 | Bdim7 | Fmaj7#11 | E :||

 Electric guitar fill
---------|-----------|-------------|--------------|--------------------|
-1p0-----|-----------|-----1p0-----|-5s6~-------5-|--------10--13--13--|
-----2-0-|-0h2~------|---------2-0-|--------------|-------9------------|
---------|-----------|-------------|--------------|------10------------|
---------|-----------|-------------|--------------|-----12-------------|
---------|-----------|-------------|--------------|--------------------|

|-------------------|---------------------|------------------|-------------|
|-13p12-12-12p10-10-|-10p8--8--8s6--6--5--|-6~-----6s8--5----|-----(5)----|
|-------------------|---------------------|------------------|-------------|
|-------------------|---------------------|------------------|-------------|
|-------------------|---------------------|------------------|-------------|
|-------------------|---------------------|------------------|-------------|



 Verse


 Pre-Chorus:
| Dm | G | C | F |

| Dm | Dm | E | E |



 Interlude (chords similar to previous)

 Electric guitar fill
----12-12-|-12s10-10-10s8---8-|--8s7--7--7--7--7|s5----------------|----------|
-13-13-13-|-13s12-12-12s10-10-|-10s8--8--8--8--8|s6~~----5h6p5---5-|-5~-------|
----------|-------------------|-----------------|--------------7---|----------|
----------|-------------------|-----------------|------------------|----------|
----------|-------------------|-----------------|------------------|----------|
----------|-------------------|-----------------|------------------|----------|

|--------------------|----------------|------------------|-----------|
|--5h6p5---5---------|----------------|------------------|-----------|
|--------7---7-5-4---|--------------4-|-4s5------4-5s9---|-----------|
|------------------7-|-5--------6-7---|------------------|-----------|
|--------------------|---8------------|------------------|-----------|
|--------------------|----------------|------------------|-----------|



 Verse


 Chorus:
||: Am | Dm | G | C |

| F | Dm | E | E :||



 Guitar Solo:
||: Am7 | Am7 | Bdim7/11 | Bdim7/11 |

| Bdim7/11 | Bdim7/11 | Am9 | Am9 :||

 Classical guitar solo
|--------------|--------------|-------------|--------------|
|----5-5-5-5-5-|--5--5--6--5--|-------------|------------5-|
|--------------|--------------|--7--------7-|--7-----------|
|--------------|--------------|-------------|--------------|
|--------------|--------------|-------------|--------------|
|--------------|--------------|-------------|--------------|

|----------------|------------------|--------------|---------------|
|----------------|------------------|--------------|-------5-5-5-6-|
|--7---7-7---7-7-|-----7--7--7h9--7-|---5-5s4--5---|---5-7---------|
|----------------|------------------|--------------|---------------|
|----------------|------------------|--------------|---------------|
|----------------|------------------|--------------|---------------|

|----------------|------7--8--10-10s12-|--12h13-12-10-10h12p10---|------------|
|-6h8-8-8s10--10-|---------------------|-------------------------|------------|
|----------------|---------------------|-------------------------|------4-5-7-|
|----------------|---------------------|-------------------------|------------|
|----------------|---------------------|-------------------------|------------|
|----------------|---------------------|-------------------------|------------|

|-----------------------|-----------5-7-8-|-7h8p7---5-----------|--------------|
|-5--5-----5--------5-6-|-8--8~-6-8-------|-------------8---6---|-5------------|
|-------7-----4-5-7-----|-----------------|---------------------|-----7---5---|
|-----------------------|-----------------|---------------------|--------------|
|-----------------------|-----------------|---------------------|--------------|
|-----------------------|-----------------|---------------------|--------------|



 1/2 Verse:
| Dm | Dm | Am9 | Am9 |

| Bdim7/11 | Bdim7/11 | E | E |



 Pre-Chorus

 1/2 Chorus


 Outro: (similar to Interlude), end on Am9

 Electric guitar fill
---------|-----------|-------------|---------------|--------------------|
-1p0-----|-----------|-----1p0-----|-5s6~---/8---5-|------------13--13--|
-----2-0-|-0h2~------|---------2-0-|---------------|---------9----------|
---------|-----------|-------------|---------------|-------10-----------|
---------|-----------|-------------|---------------|------12------------|
---------|-----------|-------------|---------------|--------------------|

|-------------------|---------------------|----------|------|------------|------|
|-13-12-12-12-10-10-|-10-8--8--8s6--6--5--|-6~-------|-5---|-5----------|------|
|-------------------|---------------------|----------|------|----7--5--4-|------|
|-------------------|---------------------|----------|------|------------|-5t7--|
|-------------------|---------------------|----------|------|------------|------|
|-------------------|---------------------|----------|------|------------|------|
                            |
                            | Fmaj7#11  E             Am9
                            |----------|------|------------|-0^---|
                            |-0--------|-0----|------------|-0^---|
                      Rhythm  |-2--------|-1----|------------|-5^---|
                      Guitar > |-3--------|-2----|-2--0-------|-7^---|
                      ending  |----------|------|-------3--2-|-0^---|
                            |----------|------|------------|------|



Mystery the moon
A hole in the sky
A supernatural nightlight
So full but often right
A pair of eyes a closing one
A chosen child of golden sun
A marble dog that chases cars to farthest reaches of the beach
and far beyond into the swimming sea of stars

The cosmic fish they love to kiss
They're giving birth to constellations
No riffs and oh no reservation
If they should fall you'd get a wish or dedication
May I suggest you get the best
For nothing less than you and I
Let's take a chance as this romance is rising
Oh, before we lose the lighting

Oh, bella bella, please
Bella you, beautiful luna
Oh, bella do what you do

You are an illuminating anchor
Of leads to infinite number
Crashing waves and breaking thunder
Tiding the evenflows of hunger
You're dancing naked there for me
You expose all memory
You make the most of boundary
You're the ghost of royalty imposing love
You are the queen and king combining everything
Into twining like a ring around the finger of a girl
I'm just a singer, you're the world
All I can bring ya is the language of a lover

Bella luna, my beautiful, beautiful moon
How you swoon me like no other

May I suggest you get the best of your wish
May I insist that no contest for little you or smaller I
A larger chance had but all
There may lie on the rise on the brink of our lives

Bella, please
Bella you, beautiful luna
Oh bella do what you do

Bella luna, my beautiful, beautiful moon
How you swoon me like no other



Jon Sebastian Frederiksen - 25th /November /08
Just mail me at [email protected] with questions, comments and corrections!


Текст, аккорды и табулатура для песни "Bella Luna", исполняет "Jason Mraz".
Используемые в песне аккорды можно найти в разделе Как брать аккорды. Аккорды для шестиструнной гитары. Другие песни можно найти на нашем сайте, воспользовавшись алфавитным указателем вверху страницы.


Слушать онлайн Bella Luna


Jason MrazBella Luna на Яндекс.Музыке


 
Ошибка в тексте? Выделите ошибку и нажмите Ctrl+Enter