From:[email protected]

Tab by Raul Moreno

#Artist: JASON BECKER
#Album: Perpetual Burn
#Song: MABEL'S FATAL FABLE

01min:15seg

||--------------------------------------------------------------------|
||-------------------------------------------------8-10-12-13---------|
||*-----------7-9-10-9-7-------------------7-9-10---------------------|
||*7-6-7-9-10------------10-9---7-6-7-9-10----------------------------|
||--------------------------------------------------------------------|
||--------------------------------------------------------------------|

|---------------------------------------------------------------------|
|---------------------------------------------------------------------|
|----------------10-12-14-12-10--------------------9-10---------------|
|--10-9-10-12-14----------------14-12---10-9-10-12-------7-9-10-8-9-10|
|---------------------------------------------------------------------|
|---------------------------------------------------------------------|

-(No estoy completamente seguro del siguiente compas, pero suena bien)

I'm not completely sure about what's next, but sounds quite good...

|---------------------------------------------------------------------|
|---------------------------------------------------------------------|
|---------------------------5-----7-----9-----10----------------------|
|-6-----7-----9-----10--------7-7---7-7---7-7----7-7------------------|
|---7-7---7-7---7-7----7-7--------------------------------------------|
|---------------------------------------------------------------------|


   1.----------------------------------------------------------------|
|--------------------------------------------------------------------||
|--------------------------------------------------------------------||
|--10-9-7-10-9-7--9-7-------------7--------------9^7^9--------------*||
|---------------------10---7-9-10---10-9-7-9-10---------6-7-9-------*||
|--------------------------------------------------------------------||
|--------------------------------------------------------------------||


2.
|---------------------------------------------------------------------|
|---------------------------------------------------------------------|
|---------------------------------7--------------9^7^9--------------*||
|--10-9-7-10-9-7--10-9-7---7-9-10---10-9-7-9-10---------6-7-9-------*||
|---------------------------------------------------------------------|
|---------------------------------------------------------------------|

|---------------------------------------------------------------------|
|---------------------------------------------------------------------|
|-------------7-9-10-9-7-5----------------5-7-9-7-5-4-----------------|
|--7-6-7-9-10---------------9---5-4-5-7-9-------------7---------------|
|---------------------------------------------------------------------|
|---------------------------------------------------------------------|

|---------------------------------------------------------------------|
|---------------------------------------------------------------------|
|------------4-5-7-5-4-2----2-4-5--1-2-4--2-4-5--4-5-6--5-6-7--6-7-8--|
|--3-2-3-5-7-------------5--------------------------------------------|
|---------------------------------------------------------------------|
|---------------------------------------------------------------------|


|--------12------/16^12----------12---13-12-10------------------------|
|-----13---13-----------12----12---------------13-12-10---------------|
|---13-------13------------13---------------------------10-9-7--------|
|-14-----------------------------------------------------------10-9-7-|
|---------------------------------------------------------------------|
|---------------------------------------------------------------------|

|---------------------------------------------------------------------|
|---------------------------------------------------------------------|
|-------9-------/13^9--------9-----10-9-7--10-9-7--9-7------------7---|
|-----9---9-----------9----9---------------------------10-9-10--------|
|-7^11-----11-----------11--------------------------------------------|
|---------------------------------------------------------------------|

|---------------------------------------------------------------------|
|---------------------------------------------------------------------|
|-------------7-9-10-9-7-5----------------5-7-9-7-5-4-----------------|
|--7-6-7-9-10---------------9---5-4-5-7-9-------------7---------------|
|---------------------------------------------------------------------|
|---------------------------------------------------------------------|

|---------------------------------------------------------------------|
|---------------------------------------------------------------------|
|------------4-5-7-5-4-2----------------------------------------------|
|--3-2-3-5-7-------------5--------------------------------------------|
|---------------------------------------------------------------------|
|---------------------------------------------------------------------|

Here comes something to practise...

|---------------10-15^10----------10-15^11----------------------------11|
|------------12----------12----12----------13----------------------13---|
|---------12----------------12----------------12----------------12------|
|------12----------------------------------------13----------13---------|
|10^14----------------------------------------------15-10^15------------|
|-----------------------------------------------------------------------|

|15^10----------------------------10-15^11----------------------------11|
|------12----------------------12----------13----------------------13---|
|---------12----------------12----------------12----------------12------|
|------------12----------12----------------------13----------13---------|
|---------------14-10^14----------------------------15-10^15------------|
|-----------------------------------------------------------------------|

|----10-15----11-15----10-15----11-15----10-15----11-15----10-15----11-15--16|
|-12-------13-------12-------13-------12-------13-------12-------13----------|
|----------------------------------------------------------------------------|
|----------------------------------------------------------------------------|
|----------------------------------------------------------------------------|
|----------------------------------------------------------------------------|

|-16^13-------------------------10^13/16^13---------------------|
|-------15-------------------12-------------15------------------|
|----------16^1310----10^13-------------------16^1310---------|
|-------------------12----------------------------------12------|
|---------------------------------------------------------------|
|---------------------------------------------------------------|

-Aqui se le va la pelota en modo Mi Eolico (Aeolian), y probablemente usa
un harmonizador o algo asi (o dobla la guitarra).

Now he plays using Aeolian and uses harmonizer (or doubles guitar).

I hope you enjoy this. Remember to make your own fingerings,
just use the notes here as a guide.

Any comments, ideas, improved versions or other jason becker
tabs, etc. here, thanks:
[email protected]


Текст, аккорды и табулатура для песни "Perpetual Burn", исполняет "Jason Becker".
Используемые в песне аккорды можно найти в разделе Как брать аккорды. Аккорды для шестиструнной гитары. Другие песни можно найти на нашем сайте, воспользовавшись алфавитным указателем вверху страницы.


 
Ошибка в тексте? Выделите ошибку и нажмите Ctrl+Enter