Tabbed by Jamie Phillips ([email protected])

Artist: Bert Jansch
Track title: Read All About It
Album: From the Outside
Tuning: EADGBE
Capo: 1st fret

This is a nice little number and reasonably easy to play; there are various fingering
possibilities you could use as an alternative to some of these, for example the D minor
and A minor riffs in the second section can be played either as barres or in open position
at some points. I'm not a big fan of full barres due to my skinny fingers so I generally
go for the open option when I can! Experiment. This is basically the 1st verse tabbed;
the intro and the other verses are the same material with a few minor variations (which
you'll probably end up doing yourself anyway). Have fun :o)

Rhythm = 4/4

Beat:*     *     *     *       *     *    *     * 
E||--5--------8p-7--5-------|--7--------7----7-------|
B||-----5-------------------|------------------------|
G||--------5----------------|-----8------------------|
D||--------------------5----|------------------------|
A||--0-----------0----------|--------9---------------|
E||-------------------------|--7----------------7----|


   *     *     *     *        *     *     *     *        *    *     *    *
E--------------------------|--------------------------|------------------------|
B--6-----5--------5--------|--6-5-----3-----5--------|----------5-------------|
G-----5-----7--------------|-----3-----------------3--|---------------4-----4--|
D--------7-----------7-5--|--------5-----------5-----|-------2----------2-----|
A--5-----------5-----------|--3-----------3-----------|------------------------|
E--------------------------|--------------------------|--4---------------------|


   *    *     *     *        *    *     *     *       *     *     *     *
E-------------------------|----------0-------------|--5--------8p-7--5-------|
B----------------5--------|--5-------------5-------|-----5-------------------|
G-/5-------5-----------5--|------------------------|--------5----------------|
D-------2-----------2-----|-------2-----------2----|--------------------5----|
A--0----------0-----------|--0----------0----------|--0-----------0----------|
E-------------------------|------------------------|-------------------------|

 
   *     *    *     *       *     *     *     *        *     *     *     *
E--7--------7----7-------|--------------------------|--------------------------|
B------------------------|--6-----5--------5--------|--6-5-----3-----5--------|
G-----8------------------|-----5-----7--------------|-----3-----------------3--|
D------------------------|--------7-----------7-5--|--------5-----------5-----|
A--------9---------------|--5-----------5-----------|--3-----------3-----------|
E--7----------------7----|--------------------------|--------------------------|


   *    *     *    *        *    *     *     *        *    *     *     *
E------------------------|-------------------------|--5----5----------------|
B----------5-------------|----------------5--------|----------8-----6-------|
G---------------4-----4--|-/5-------5-----------2--|------------------------|
D-------2----------2-----|-------2-----------2-----|-------7-----------7----|
A------------------------|--0----------0-----------|--5----------5----------|
E--4---------------------|-------------------------|------------------------|


   *     *     *     *        *     *     *     *        *    *     *     * 
E-----3--------------------|--------------------------|--0-------------0-------|
B--5--------6-----5--------|--6-----5--------5--------|------------------------|
G--------------------------|-----5-----7--------------|----------2-------------|
D--------5-----------5-/7--|--------7-----------7--7--|-------2-----------2----|
A--3-----------3-----------|--5-----------5-----------|--0----------0----------|
E--------------------------|--------------------------|------------------------|


   *    *     *     *       *     *     *     *       *     *     *     * 
E--5----5----------------|-----3-------------------|--1-----0--------0--------|
B----------8-----6-------|--5--------6-----5-------|-----1-----3--------------|
G------------------------|-------------------------|--------2-----------2--2--|
D-------7-----------7----|--------5----------------|--0-----------0-----------|
A--5----------5----------|--3-----------3-----3----|--------------------------|
E------------------------|-------------------------|--------------------------|


   *    *     *     *        *     *     *     *        *    *     *     *
E--0-------------0--------|--1-----0--------0--------|--0-------------0--------|
B-------------------------|-----1-----3--------------|-------------------------|
G----------2-----------2--|--------2-----------2--2--|----------2-----------2--|
D-------2-----------2-----|--0-----------0-----------|-------2-----------2-----|
A--0----------0-----------|--------------------------|--0----------0-----------|
E-------------------------|--------------------------|-------------------------|


   *     *     *     *        *    *     *     * 
E--1-----0--------0--------|--0-------------0-------||
B-----1-----3--------------|------------------------||
G--------2--------------2--|----------2-------------||
D--0-----------0-----2-----|-------2-----------2----||
A--------------------------|--0----------0----------||
E--------------------------|------------------------||

TAB guide: p = pull off
           / = slide into from below
            = slide down to from above


Текст, аккорды и табулатура для песни "Read All About It", исполняет "Jansch Bert".
Используемые в песне аккорды можно найти в разделе Как брать аккорды. Аккорды для шестиструнной гитары. Другие песни можно найти на нашем сайте, воспользовавшись алфавитным указателем вверху страницы.


 
Ошибка в тексте? Выделите ошибку и нажмите Ctrl+Enter