Вступление: H H-C-H H-C-H C C
H                   C
Попал на деньги, Бывает
Жизнь не игра, Смотря кто играет
На тебя не ставлю Не обижайся
Ты и сам бы не поставил Признайся
Звонок другу Помощь зала
Подсказок не осталось Сумма пропала
Беги, Просто беги
Тебе дали фору Не тормози

H-C-D....
Беги! Пуля летит долго!

Куришь дни Как последние сиги
Дешевый герой Дешевой книги
Тебе Осталось так мало
Начать и закончить Сигарета упала
На землю Едва коснулась
Открыла глаза, От страха проснулась
Беги, Просто беги
Тебе дали фору Не тормози

Беги! Пуля летит долго!

Где-то есть место Где не найдут
Только где оно, Там или тут
Кончились карты, Крапленые остались
Играешь честно Перестарались
Можно увозить, Не жилец
Ты еле живой, Тебе пиздец
Но ты еще пока остаешься в игре
Это только пока


Вступление:
--0---0-1--0--1--0-1---1-- --0---0-1--0--1--0-1---1---1- 

Связка:
---------
---------
---------
--0-0-0--
--0-0-0--
--0-0-0--
Проигрыш1:
--------------------------------------------------------
--------------------------------------------------------
--------------------------------------------------------
--0---0-1--0--1--0-1---1-----0---0-1--0--1--0-1---1---1-
--0---0-1--0--1--0-1---1-----0---0-1--0--1--0-1---1---1-
--0---0-1--0--1--0-1---1-----0---0-1--0--1--0-1---1---1- 
Куплет:
------------------------------
------------------------9----- 
----8----8-9-8-----8------9-8-
-6-----6--------6-----6-------
------------------------------
------------------------------
Припев:
------------------
------------------
------------------
0--1--3--0-0--1--3  
0--1--3--0-0--1--3
0--1--3--0-0--1--3

Проигрыш2 (После 2 припева):
---------------------------------------
---------------------------------------
-9---9-10---10-9---9-10--14-14-14--10--
---------------------------------------   
-8---8-9----9--8---8-9---13-13-13--9---
---------------------------------------
Беги! Пуля летит долго!
	
	
	        
Комментарий автора: Играется следующим способом: Вступление 2x, Связка, Проигрыш1 2x, Куплет 2x, Припев 4х, Связка, Проигрыш, Куплет 3х, Припев 2х, Проигрыш2 4х, Припев 8х

Текст, аккорды и табулатура для песни "Пуля", исполняет "Jane Air".
Используемые в песне аккорды можно найти в разделе Как брать аккорды. Аккорды для шестиструнной гитары. Другие песни можно найти на нашем сайте, воспользовавшись алфавитным указателем вверху страницы.


 
Ошибка в тексте? Выделите ошибку и нажмите Ctrl+Enter