#-----------------------------------------------------------------------------#
#-- File created with Instab - http://www.pconline.com/~smcarey/instab.html --#
#-----------------------------------------------------------------------------#
Author/Artist: Michael Jackson
Title: Leave Me Alone
Album: Bad
Transcribed by: Mr. Moustache
Tuning: 1 step down

------------------------------------------------------------------------------
-----------5--3-3-------------------------------------------------------------
-----------4--2-2-------------------------------------------------------------
-----------2--0-0-------------------------------------------------------------
--2-2--------------2-2--------------------------------------------------------
------0-0--------------0-0----------------------------------------------------
 Intro/Verse                                                      

------------------------------------------------------------------------------
-------------------------------5--3-3-----------5--3-3-3----------------------
-------------------------------4--2-2-----------4--2-2-2----------------------
-7-7-7--5-5-5--4-4-4--3-3-3-3--2--0-0-----------2--0-0-0----------------------
-7-7-7--5-5-5--4-4-4--3-3-3-3----------2-2----------------2-2-----------------
-5-5-5--3-3-3--2-2-2--1-1-1-1--------------0-0----------------0-0-------------
 Pre-Chorus

------------------------------------------------------------------------------
------------------------------------------------------------------------------
------------------------------------------------------------------------------
-9--7--5--9--9-9--9-9--9-9--9-9--9-9--9--7--57--5--4-------------------------
-9--7--5--9--9-9--9-9--9-9--9-9--9-9--9--7--57--5--4-------------------------
-7--5--3--7--7-7--7-7--7-7--7-7--7-7--7--5--35--3--2-------------------------
 Chorus                                                                       

------------------------------------------------------------------------------
------------------------------------------------------------------------------
------------------------------------------------------------------------------
-9--7--5--9--9-9--9-9--9-9--9-9--9-9--9--7--57--9-9--7-5-7-5-2---------------
-9--7--5--9--9-9--9-9--9-9--9-9--9-9--9--7--57--9-9--7-5-7-5-2---------------
-7--5--3--7--7-7--7-7--7-7--7-7--7-7--7--5--35--7-7--5-3-5-3-0---------------
 Chorus                                                                       

------------------------------------------------------------------------------
------------------------------------------------------------------------------
------------------------------------------------------------------------------
-7-7-5-7--7-7-5-7--7-7-5-7--7h5-79-7-5-7-5------7-7-5h7-7--7-7-5-7--7-7-5-7--
--------------------------------------------7-5-------------------------------
------------------------------------------------------------------------------
 Solo                                                                         

------------------------------------------------------------------------------
------------------------------------------------------------------------------
------------------------------------------------------------------------------
-5h7-79-7-5------7-7-5h7-5---7-7-5---7-5h7-79-------------------------------
-------------7-5------------7-------7-----------7p5h7p5h7p5h7p5---------------
------------------------------------------------------------------------------
Solo                                                                              

------------------------------------------------------------------------------
------------------------------------------------------------------------------
------------------------------------------------------------------------------
------------------------------------------------------------------------------
---------7-9-7-9-7------------------------------------------------------------
-0-0-7h9----------------------------------------------------------------------
 And here's that little lick you hear throught most of the song.       


Lyrics

Verse 
Aaow-!-Hoo hoo! 
I don't care what you talkin' bout baby
I don't care what you say
Don't you come walkin' beggin' back mam
I don't care anyway
Time after I gave you all of my money
No excuses to make
Ain't no mountain that I can't climb baby
All is going my way

There was a time I used to say girl I need you
But who is sorr now
You really hurt, you used to take and deceive me
Now who is sorry now
You got a way of making me feel so sorry 
I found out right away
Don't you come walkin'-beggin' I ain't lovin' you
Don't you get in my way

Pre-Chorus
(Cause there's a time when you're right and you know you must fight)
Who's laughing baby, don't you know
(And there's the choice that we make and this choice you will take)
Who's laughin' baby

Chorus
So just leave me alone girld- leave me alone
(Leave me alone)
(Leave me alone)
Leave me alone
(leave me alone)
(leave me alone)
Leave me alone-stop it!
Just stop doggin' me around
(Just stop doggin' me)

Outro
Just stop stop doggin' me around
(Just stop doggin' me)
Don't come beggin' me
Don't come beggin'
Don't come lovin' me
Don't come beggin'
I love you
I don't want to
I don't...
I don't...
I don't...
I.., I.., I.., aaow!
Hee hee!
Don't come beggin' me
Don't come beggin'
Don't come lovein' me
Don't come beggin'
I love you
I don't want it
I don't need it


Текст, аккорды и табулатура для песни "Leave Me Alone", исполняет "Jackson Michael".
Используемые в песне аккорды можно найти в разделе Как брать аккорды. Аккорды для шестиструнной гитары. Другие песни можно найти на нашем сайте, воспользовавшись алфавитным указателем вверху страницы.


 
Ошибка в тексте? Выделите ошибку и нажмите Ctrl+Enter