Artist:Jackson 5
Song:Things I do for you

:Intro
G--------------------------------------------------|
D--------------------------------------------------|
A---------------7----6---5-------3-----3/4---------|
E--------------------------------------------------|
Two times only
----------------------------------------------------------------------------|
----------------------------------------------------------------------------|
----------------------------------------------------------------------------|
--1------3-------------1-------4------------1----4---3---4--------5---------|

bass fig 1 repeat?
--------------------------------------------------------|
--------------------------------------------------------|
--------------------------------------------------------|
--1----------4--3---------1----4---3---4--------5-------|
bass fig 2
----------------------------------------------------------------------------------------------|
----------------------------------------------------------------------------------------------|
----------------------------------------------------------------------------------------------|
--1------0123---------1-----0123------1---0123-----555555555555555-------5--6--5----67--------|
bass solo
-------------------------------------------------------------------------------||------------------------------|
--------------------3----------------------------5------3----------------------||----------5-----3-3-----------|
-------------5------------5-----------------------------------5--------5-------||------------------------5-4-3-|
------3-------------------------------3--------------------------------|-------||---3--------------------------|
                                                                       5 Bend
tabbed by ben barnett


Текст, аккорды и табулатура для песни "Things I Do For You", исполняет "Jackson 5".
Используемые в песне аккорды можно найти в разделе Как брать аккорды. Аккорды для шестиструнной гитары. Другие песни можно найти на нашем сайте, воспользовавшись алфавитным указателем вверху страницы.


 
Ошибка в тексте? Выделите ошибку и нажмите Ctrl+Enter