I think this is the one you've been lookin' for!!
This goes on the whole song:

e|------x--x------------x-------x--x------------x-
b|------x--x------------x-------x--x------------x-
G|*-8---x--x--8h10-8----x---8---x--x--8h10-8----x-
D|*-8---x--x--8----8----x---8---x--x--8----8----x-
A|-(10)-x--x-(10)-(10)--x--(10)-x--x-(10)-(10)--x-
E|--8---x--x--8----8----x---8---x--x--8----8----x-
                                         
e--------------------------------------------|
b--9------9h11-9--------11-----11h13-11------|
G--8------8----8--------10-----10----10-----*|
D-(10)---(10)-(10)-----(12)---(12)--(12)----*|
A--8------8----8--------10-----10----10------|
E--------------------------------------------|

You can leave the notes between () away if you think they're
too difficult. The muted notes aren't necessary either.


Текст, аккорды и табулатура для песни "Always On Time", исполняет "Ja Rule".
Используемые в песне аккорды можно найти в разделе Как брать аккорды. Аккорды для шестиструнной гитары. Другие песни можно найти на нашем сайте, воспользовавшись алфавитным указателем вверху страницы.


 
Ошибка в тексте? Выделите ошибку и нажмите Ctrl+Enter