Wildest Dreams solo

Tabbed by Dave.

Bridge into solo:
|---------------------------------------|
|---------------------------------------|
|-7--6--4-----------------------------4-|
|----------7--5--4--7--5--4-----------4-|
|----------------------------7--5--4--2-|
|---------------------------------------|

Guitar solo played by Adrian Smith:
|---------------7--9--10--9--10--12--10--9--------------------|
|-12b--10--12b------------------------------10--9-------------|
|--------------------------------------------------11--9------|
|-------------------------------------------------------------|
|---------------------------------------------------------12--|
|-------------------------------------------------------------|

                                              P.H
|------7------------------------------------------|
|----7---10p7---7---------------------------------|
|-9b----------9---9-----7-------------------------|
|--------------------9-----9--7-------------------|
|-------------------------------9--8--7--5-----9--|
|-------------------------------------------7-----|

|-----------------------------------------------------------|
|-0h5h7--0h5h7--0h7h8-0h7h8--0h8h10-0h8h10--0h10h12-0h10h12-|
|-----------------------------------------------------------|
|-----------------------------------------------------------|
|-----------------------------------------------------------|
|-----------------------------------------------------------|

|-----------------------------------------------------------------|
|-0h12h14-0h12h14--0h14h15-0h14h15--0h15h17-0h15h17--0h17h19--19b-|
|-----------------------------------------------------------------|
|-----------------------------------------------------------------|
|-----------------------------------------------------------------|
|-----------------------------------------------------------------|

|-19---------------------------------------------------------------|
|-----19w/bar--15--14------15--14------14--------------------------|
|----------------------16----------16------16--14------14----------|
|--------------------------------------------------16------16--14--|
|------------------------------------------------------------------|
|------------------------------------------------------------------|

                     P.H
|---------------------------|
|---------------------------|
|--------------------16~~~~-|
|-12--12h14p12trill---------|
|---------------------------|
|---------------------------|

Post solo:                                                P.H
|----------------|----------------|----------------------------|
|----------------|----------------|-9--10--12--13--12--10--9~~-|
|-5----7----9----|-5----7----9----|----------------------------|
|-5----7----9----|-5----7----9----|----------------------------|
|-3----5----7----|-3----5----7----|----------------------------|
|----------------|----------------|----------------------------|

|----------------------------------------|
|-9--10--12--13--13/15--13h15p13--12~~~~-|
|----------------------------------------|
|----------------------------------------|
|----------------------------------------|
|----------------------------------------|

That's the solo and the pre and post bits. The rhythm is on quite a few sites so you can
put this with that. I'm fairly confident that it's accurate but not 100%. You'll have to
see what you think of it. ENJOY! 

NB - If you like you can post this stuff in a tab with the rhythm together as a full song
but please put my name on what i have done.


Текст, аккорды и табулатура для песни "Wildest Dreams", исполняет "Iron Maiden".
Используемые в песне аккорды можно найти в разделе Как брать аккорды. Аккорды для шестиструнной гитары. Другие песни можно найти на нашем сайте, воспользовавшись алфавитным указателем вверху страницы.


Слушать онлайн Wildest Dreams


Iron MaidenWildest Dreams на Яндекс.Музыке


 
Ошибка в тексте? Выделите ошибку и нажмите Ctrl+Enter