Transylvania ( Harris )
Guitar 1: Dave Murray         b: bend      b...r: bend and release    h: hammer-on     p: 
pull-off                                                                                  
Guitar 2: Janick Gers           /: slide ( up or down )  P.M.: palm-mute   N.H.: natural-
harmonics 
The music was copied from the "A Real Dead One" tablature book by Tolly.
Intro:
Riff 1:
Guitar 1: Play 4 times     
E----------------------------------------------------------------------|
B----------------------------------------------------------------------|
G----------------------------------------------------------------------|
D------------------------------------------------------------------3--|
A--5----5--5--5--5--5----5--5--5--5--5----5--5--5--5--3-------|
E----------------------------------------------------------------------|
Guitar 2: Play 4 times
E------------------------------------------------------------------------|
B------------------------------------------------------------------------|
G------------------------------------------------------------------------|
D--7----------------------------------------------------------5---10---|
A--5----------------------------------------------------------3----8----|
E-------------------------------------------------------------------------|
Guitar 1: Play 3 times
E-----------------------------------------------------------------------|
B-----------------------------------------------------------------------|
G-----------------------------------------------------------------------|
D-------------------------------------------------------------------5---|
A--7----7--7--7--7--7----7--7--7--7--7----7--7--7--7--5--------|
E-----------------------------------------------------------------------|
Guitar 2:  Play 3 times
E--------------------------------------------------------------------------|
B--------------------------------------------------------------------------|
G--------------------------------------------------------------------------|
D--9-----------------------------------------------------------7----12---|
A--7-----------------------------------------------------------5----10---|
E---------------------------------------------------------------------------|
Guitar 1:
E----------------------------------------------------------------------|
B----------------------------------------------------------------------|
G----------------------------------------------------------------------|
D----------------------------------------------------------------------|
A--7----7--7--7--7--7----7--7--7--7--7----7--7--7--7--3---5---|
E-----------------------------------------------------------------------|
Guitar 2:
E----------------------------------------------------------------------|
B----------------------------------------------------------------------|
G----------------------------------------------------------------------|
D--9----------------------------------------------------------5---7--|
A--7----------------------------------------------------------3---5--|
E----------------------------------------------------------------------|



Riff 2:
Guitar 1 & Guitar 2:
E----------------------------------------------------------------------------------------------------|
B----------------------------------------------------------------------------------------------------|
G----------------------------------------------------------------------------------------------------|
D--2--2--2--2--2--5--4--2--2--2--2--2--5--4-------------------------2--2--2--2--2--5--4--|
A---------------------------------------------------5--5--5--5--5--2--5--------------------------|
E----------------------------------------------------------------------------------------------------|
E----------------------------------------------------------------------------------------------------|
B----------------------------------------------------------------------------------------------------|
G----------------------------------------------------------------------------------------------------|
D--2--2--2--2--2--5--4--2--2--2--2--2--5--4-------------------------2--2--2--2--2----------|
A---------------------------------------------------5--5--5--5--5--2--5-------------------5--4---|
E-----------------------------------------------------------------------------------------------------|

E------------------------------------------------------------------------------------------------------|
B------------------------------------------------------------------------------------------------------|
G------------------------------------------------------------------------------------------------------|
D------------------------------------------------------------------------------------------------------|
A--2--2--2--2--2--5--4--2--2--2--2--2--5--4--------------------------2--2--2--2--2--5--4---|
E----------------------------------------------------5--5--5--5--5--2--5---------------------------|
E-----------------------------------------------------------------------------------------------------|
B-----------------------------------------------------------------------------------------------------|
G-----------------------------------------------------------------------------------------------------|
D-----------------------------------------------------------------------------------------------------|
A--2--2--2--2--2--5--4--2--2--2--2--2--5--4--------------------------2--2--2--2--2--5--4--|
E----------------------------------------------------5--5--5--5--5--2--5--------------------------|
E----------------------------------------------------------------------------------------------------|
B----------------------------------------------------------------------------------------------------|
G----------------------------------------------------------------------------------------------------|
D--2--2--2--2--2--5--4--2--2--2--2--2--5--4-------------------------2--2--2--2--2--5--4--|
A---------------------------------------------------5--5--5--5--5--2--5--------------------------|
E----------------------------------------------------------------------------------------------------|
E----------------------------------------------------------------------------------------------------|
B----------------------------------------------------------------------------------------------------|
G----------------------------------------------------------------------------------------------------|
D--2--2--2--2--2--5--4--2--2--2--2--2--5--4-------------------------2--2--2--2--2----------|
A---------------------------------------------------5--5--5--5--5--2--5-------------------5--4---|
E-----------------------------------------------------------------------------------------------------|

E------------------------------------------------------------------------------------------------------|
B------------------------------------------------------------------------------------------------------|
G------------------------------------------------------------------------------------------------------|
D------------------------------------------------------------------------------------------------------|
A--2--2--2--2--2--5--4--2--2--2--2--2--5--4--------------------------2--2--2--2--2--5--4---|
E----------------------------------------------------5--5--5--5--5--2--5---------------------------|
E------------------------------------------------------------------------------------------------|
B------------------------------------------------------------------------------------------------|
G------------------------------------------------------------------------------------------------|
D------------------------------------------------------------------------------------------------|
A--2--2--2--2--2--5--4--2--2--2--2--2--5--4--------------------------2--2--2--2--2----|
E----------------------------------------------------5--5--5--5--5--2--5---------------------|

Riff 3:
Guitar 1 & Guitar 2: Play 3 times
E-----------------------------------------------------------------------------------------------|
B--12--------10-------8--------8--------8--------8---------8p7----10--8p7--8p7-------|
G--14b16---12b14--10b12--10b12--10b12--10b12---------9-------------------9----|
D-----------------------------------------------------------------------------------------------|
A-----------------------------------------------------------------------------------------------|
E-----------------------------------------------------------------------------------------------|
Guitar 1 & Guitar 2:
E-------------------------------------------------------------------------------------|
B--12--------10-------8--------8--------8--------8---------8p7----10p8--7----|
G--14b16---12b14--10b12--10b12--10b12--10b12---------9---------------|
D-------------------------------------------------------------------------------------|
A-------------------------------------------------------------------------------------|
E-------------------------------------------------------------------------------------|
Now play Riff 2 again, then the 1st bar of Riff 3 ( 3 times ) and then
Guitar 1 & Guitar 2:
E-------------------------------------------------------------------------------------|
B--12--------10-------8--------8--------8--------8---------8p7----10--8p7----|
G--14b16---12b14--10b12--10b12--10b12--10b12---------9---------------|
D-------------------------------------------------------------------------------------|
A-------------------------------------------------------------------------------------|
E-------------------------------------------------------------------------------------|
Guitar 1: Play 3 times
E-----------------------------------------------------------------------|
B-----------------------------------------------------------------------|
G-----------------------------------------------------------------------|
D-------------------------------------------------------------------5---|
A--7----7--7--7--7--7----7--7--7--7--7----7--7--7--7--5--------|
E-----------------------------------------------------------------------|
Guitar 2: Play 3 times
E--------------------------------------------------------------------------|
B--------------------------------------------------------------------------|
G--------------------------------------------------------------------------|
D--9-----------------------------------------------------------7----12---|
A--7-----------------------------------------------------------5----10---|
E---------------------------------------------------------------------------|
Guitar 1:
E----------------------------------------------------------------------|
B----------------------------------------------------------------------|
G----------------------------------------------------------------------|
D----------------------------------------------------------------------|
A--7----7--7--7--7--7----7--7--7--7--7----7--7--7--7--3---5---|
E-----------------------------------------------------------------------|
Guitar 2:
E----------------------------------------------------------------------|
B----------------------------------------------------------------------|
G----------------------------------------------------------------------|
D--9----------------------------------------------------------5---7--|
A--7----------------------------------------------------------3---5--|
E----------------------------------------------------------------------|




Guitar 1 & Guitar 2:                       
E------------------------------------|      
B------------------------------------|    
G------------------------------------|      
D-----5--5--5--5p4----------------|      
A--7------------------7--5--7------|      
E------------------------------------|       
Riff 4:
Guitar 1 & Guitar 2: Play 8 times.
E-----------------------------------------|
B-----------------------------------------|
G-----------------------------------------|
D--5--5--5--5p4------------------------|
A-------------------7--5--7--------------|
E------------------------------------------| 
Solo:    
Guitar 2:
E-----------------------12----------12-------------------------12--14--15b17--15b17--15--14--12------------------|
B---------------------------12--15-----15--15b17--15b17---------------------------------------------15--15b17r15|
G--14b16----14b16-------------------------------------------------------------------------------------------------------|
D-----------------------------------------------------------------------------------------------------------------------------|
A-----------------------------------------------------------------------------------------------------------------------------|
E-----------------------------------------------------------------------------------------------------------------------------|
E--------------17p15-----17p15-----17p15----17p15----17p15---------------------------------------------------|
B---------17----------17----------17---------17---------17----------17--17p15-----17p15-----12---------12---|
G--12~--------------------------------------------------------------------------------16---------16-----14p12-------|
D--------------------------------------------------------------------------------------------------------------------------|
A--------------------------------------------------------------------------------------------------------------------------|
E---------------------------------------------------------------------------------------------------------------------------|
E-----------------------------------------------------------------------------------12-----------------------|
B-----------12-----------------------------------------------------------------12-----12--15b17~-------|
G--14p12-----14p12-----12---------------------------------14b16----14------------------------------|
D------------------------14-----14p12---------------------------------------------------------------------|
A-----------------------------------------14--12h14p12---------------------------------------------------|
E------------------------------------------------------------15-----------------------------------------------|
E----------------------------------------------------------------|
B----------------------------------------------------------------|
G--14b16r14--12--14b16r14--12--14b16r14--12-------|
D-----------------------------------------------------------14--|
A----------------------------------------------------------------|
E----------------------------------------------------------------|
During the Solo Guitar 1 plays Riff 4 ( 16 times ).
Riff 5:
Guitar 1: Play 16 times     Guitar 2 plays Riff 4 ( 16 times )
E-----------------------------|
B--8--8--8--8p7------------|
G------------------9--7--9---|
D------------------------------|
A------------------------------|
E------------------------------|




Riff 6:                                                                                                      
Guitar 1: Play 6 times                         
E------------------------------------------------|
B--12--12--12--12p10-----------------------|
G---------------------------12--11--12--------|
D------------------------------------------------|
A------------------------------------------------|
E-------------------------------------------------|
Guitar 2: Play 6 times
E------------------------------------------------|
B---8---8---8---8p7--------------------------|
G---------------------------9---7---9----------|
D------------------------------------------------|
A------------------------------------------------|
E------------------------------------------------|
Solo:
Guitar 1:      Guitar 2 plays here Riff 4 ( 32 times )
E------trill----------trill-----------trill-----------trill--------------------------------------12--14--15--15b17---|
B--10h12p10--12h13p12---13h15p13---12h13p12----15b17--15b17--15b17-----------------------------|
G------------------------------------------------------------------------------------------------------------------------|
D------------------------------------------------------------------------------------------------------------------------|
A------------------------------------------------------------------------------------------------------------------------|
E------------------------------------------------------------------------------------------------------------------------|
E--15b17--15--14--12-----------------------------------------------------------------------------------------------|
B--------------------------15--15b17--/17--15h17--15p13p12--13p12---------------12--13p12h13--15----|
G--------------------------------------------------------------------------------14--12h14----------------------------|
D-------------------------------------------------------------------------------------------------------------------------|
A-------------------------------------------------------------------------------------------------------------------------|
E-------------------------------------------------------------------------------------------------------------------------|
E--12h14--12--14--12---------------------------------------------------------------------------------------------------|
B---------------------------15--13p12------------------------------------------12b15------15h17p15h17p15h17--|
G-----------------------------------------14--12/11--14p12/11--12p11--------------/16-----------------------------|
D------------------------------------------------------------------------------14-------------------------------------------|
A----------------------------------------------------------------------------------------------------------------------------|
E----------------------------------------------------------------------------------------------------------------------------|
E---------------------------------------------------------------------------14h15p14------14----14--15p14--15--17-|
B-15h17p15h17p15------15h17p15------15h17p15h17p15--------------------17-----17-------------------------|
G------------------------16---------------16-------------------------16----------------------------------------------------|
D-----------------------------------------------------------------------------------------------------------------------------|
A-----------------------------------------------------------------------------------------------------------------------------|
E-----------------------------------------------------------------------------------------------------------------------------|
E--17b19--17b19--17b19--17b19--17b19r17--15--14--15-----14-------------------------------------------------|
B---------------------------------------------------------------------17-----17--15--13h15p13--12h13p12--13--15-|
G-----------------------------------------------------------------------------------------------------------------------------|
D-----------------------------------------------------------------------------------------------------------------------------|
A-----------------------------------------------------------------------------------------------------------------------------|
E-----------------------------------------------------------------------------------------------------------------------------|
E--12h14p12-----14p12--15--14p12--------------------------------------------------------------|
B---------------15-------------------------15--15b17--15p13--15--13p12-----------------------|
G----------------------------------------------------------------------------------14p12--------------|
D-------------------------------------------------------------------------------------------14---------|
A-------------------------------------------------------------------------------------------------------|
E-------------------------------------------------------------------------------------------------------|
Play this bar 6 times           Play the 1st bar 5 times and the 2nd once
E-----------12--15p12---|     E-----------10--13p10---|-----------10--13---|
B--15b17-----------------|     B--13b15-----------------|--13b15-------------|
G---------------------------|    G---------------------------|-----------------------|
D---------------------------|    D---------------------------|-----------------------|
A---------------------------|    A---------------------------|-----------------------|
E---------------------------|     E---------------------------|-----------------------|
Play the 1st bar 2 times and the 2nd once   Play the 1st bar 2 times and the 2nd once
E-----------8--11p8----|----------8--11---|     E-----------10--13p10---|-----------10--13---|
B--11b13---------------|-11b13-----------|     B--13b15-----------------|--13b15------------|
G-------------------------|--------------------|    G---------------------------|----------------------|
D-------------------------|--------------------|    D---------------------------|----------------------|
A-------------------------|--------------------|    A---------------------------|----------------------|
E-------------------------|--------------------|     E---------------------------|----------------------|
E--0--12p0--0--10p0--0--8p0--0--7p0--0--5p0--0--3p0--0--5p0--0--0----|
B-------------------------------------------------------------------------------------|
G-------------------------------------------------------------------------------------|
D-------------------------------------------------------------------------------------|
A-------------------------------------------------------------------------------------|
E-------------------------------------------------------------------------------------|
Play this bar 5 times            Play the 1st bar 3 times and the 2nd once
E-----------12--15p12---|      E-----------10--13p10---|----------10--13p10--13p10----------10---------10--13|
B--15b17-----------------|      B--13b15-----------------|--13b15------------------------13b15-----13b15---------|
G---------------------------|      G--------------------------|----------------------------------------------------------------|
D---------------------------|      D--------------------------|----------------------------------------------------------------|
A---------------------------|      A--------------------------|----------------------------------------------------------------|
E---------------------------|       E--------------------------|----------------------------------------------------------------|
E----------8----------8--11p8----------8---------8--11---------10----------10--13p10---------10---------10--13--|
B-11b13----11b13-----------11b13----11b13--------13b15-----13b15---------------13b15----13b15-----------|
G-----------------------------------------------------------------------------------------------------------------------------|      
D-----------------------------------------------------------------------------------------------------------------------------|      
A-----------------------------------------------------------------------------------------------------------------------------|      
E-----------------------------------------------------------------------------------------------------------------------------|       
E-------------------------------------------------------------------|
B--0--5p3p0--5p3p0--5p3p0--5p3p0------------------------|
G---------------------------------------------2--2b3r2p0--------|
D-------------------------------------------------------------2----|
A------------------------------------------------------------------|
E------------------------------------------------------------------|
Now Guitar 1 & Guitar 2 play Riff 4 ( 5 times ) and then:
Guitar 1 & Guitar 2:
E-----------------------0--0--0--12p0--0--10p0--0--8p0--0--7p0--0--5p0--0--3p0--0--2p0--0--0---|
B-----------------------------------------------------------------------------------------------------------------|
G-----------------------------------------------------------------------------------------------------------------|
D--5--5--5--5p4------------------------------------------------------------------------------------------------|
A-------------------7---------------------------------------------------------------------------------------------|
E------------------------------------------------------------------------------------------------------------------|
Now Guitar 1 plays Riff 4 ( 6 times ) and Guitar 2:
Guitar 2:  Play 6 times
E-------------------------------------|
B-------------------------------------|
G-------------------------------------|
D--9--9--9--9p7--------------------|
A-------------------10--9--10-------|
E--------------------------------------|
Guitar 1:
E----------------------------------------------|
B----------------------------------------------|
G---trill--------trill-------trill---------------|
D--0h2p0----0h2p0----0h2p0------2------|
A---------------------------------------2-------|
E---------------------------------------0--------|
Ending:
Guitar 1 & Guitar 2:
E------------------------------------------|
B------------------------------------------|
G------------------------------------------|
D---/9--7--5--4-------------------2-----|
A------------------7--5--/10~----2-----|
E-----------------------------------0-----|
Guitar 1: Clean sound                                             N.H.
E-----------------0----------------|----0--------------------12------|
B--------------------0-------------|-------0-----------------12------|
G------------0----------0---------|----------0--------------12------|
D--------4------------------4-----|-------------2-----------12------|
A-----2----------------------------|---------------2------------------|
E--0-------------------------------|--------------------12------------|
  < -----Play 3 times------ >


Текст, аккорды и табулатура для песни "Transilvania", исполняет "Iron Maiden".
Используемые в песне аккорды можно найти в разделе Как брать аккорды. Аккорды для шестиструнной гитары. Другие песни можно найти на нашем сайте, воспользовавшись алфавитным указателем вверху страницы.


Слушать онлайн Transylvania


Iron MaidenTransylvania на Яндекс.Музыке


 
Ошибка в тексте? Выделите ошибку и нажмите Ctrl+Enter