Intro: (Play 2 times)

E-----------------------------------------------------|
B-----------------------------------------------------|
G-----------------------------------------------------|
D-|-9xxxx-11xxx-12xxx-14xx16--14xx12-11-12------------------------|
A-|-7xxxx-9xxxx-10xxx-12xx14--12xx10-9--10--10xxxx--12x-----------|
E-------------------------------8xxxxx--10x-----------|


                                                                               
Verse 1:

E---------------------------------|
B---------------------------------|
G---------------------------------|
D-|-9---9-9---9-9-9---9-9---9-|-7---7-7---7-7-7---7-7---7-|
A-|-7---7-7---7-7-7---7-7---7-|-5---5-5---5-5-5---5-5---5-|
E---------------------------------|


E---------------------------------|
B---------------------------------|
G---------------------------------|
D-|-9---9-9---9-9-9---9-9---9-|-7---7-7---7-7-7---7-7---7-|
A-|-7---7-7---7-7-7---7-7---7-|-5---5-5---5-5-5---5-5---5-|
E---------------------------------|


E---------------------------------|
B---------------------------------|
G---------------------------------|
D-|-5---5-5---5-5-5---5-5---5-|-9---9-9---9-9-9---9-9---9-|
A-|-3---3-3---3-3-3---3-3---3-|-7---7-7---7-7-7---7-7---7-|
E---------------------------------|


E---------------------------------|
B---------------------------------|
G---------------------------------|
D-|-5---5-5---5-5-5---5-5---5-|-4---4-4---4-4-4---4-4---4-|
A-|-3---3-3---3-3-3---3-3---3-|-2---2-2---2-2-2---2-2---2-|
E---------------------------------|                         


Chorus: 

	B5	A5	G5	A5	A5	/	/	/

	G5	F5#	E5	G5	B5	/	/	/

	B5	A5	G5	A5	A5	/	/	/

	G5	F5#	E5	G5	E5	/	/	/

Verse 2

Chorus 2	                        

Riff 1:
                                                                               
              / 3         / 3  / 3                                          
E-----------------------------------------------------------------|
B-3-5---3------3-5-3----------------------------------------------|
G-|-------4-5-----5--------------5-4-2----------------------------------------|
D-|-5---5------------------------------5- Switch between G and D every second |
A--------------------------5- time. Start with the lower note.    |
E-----------------------------------------------------------------|
                 

Solo:                                                              

          / 3   / 3   / 3   / 3   / 3                                     
E-----------------------------------|
B-|-----|-10p8---10p8---10p8---10p8---10p8------------------|
G-|-7b9-|------9------9------9------9------9p7-b9-----------|
D-------------------------7~~~~~----|
A-----------------------------------|
E-----------------------------------|
                                                                               
     T-bar                                                                     
E-------------------------------------------------8-8-|
B--------------------------|---5---5---5------8---8---8-----5-----|
G----------------------0-5-|-2---2---2------5---5---5-------------|
D-|-0-(2)---------------------------------------------------------|
A-|--------5b7-3-0-0h3---3p0---3-5--------------------------------|
E----------------3------------------------------------|
                                                                               
                                                                               
E-|---8-8-7---5----|-15b17--11-11--15-12----------12----12----------12-15b17--|
B-|-5------------------------15-13-15----------15-13-15-----------|
G-----------------------------------------------------|
D-----------------------------------------------------|
A-----------------------------------------------------|
E-----------------------------------------------------|
                                                                               
                                                                               
E------------------------------14-15-17-15-14----|
B-|-15p12----15p12----15p12----15p12----17----------------17-|
G-|-------14-------14-------14-------14----------------------|
D------------------------------------------------|
A------------------------------------------------|
E------------------------------------------------|
                                                                               
                                                                               
E-|----17b19-17-15----17-14-------12----------------------|
B-|-17-------------15-------15-17----15-12----------------|
G------------------------------14-12-14-------|
D---------------------------------------14----|
A---------------------------------------------|
E---------------------------------------------|
                                                                               
                                                                               
E-------------------------------|-15b17-15-12---------------------|
B-----------------------8-10b12---15-b17-b17-b17-b17--|
G-----------4---4-7-4-7-------------------------------|
D-|---------5---5-7-5-7---7---------------------------------------|
A-|-5-7-5-7---7---------------------------------------------------|
E-----------------------------------------------------|
                                                                               
                                                                               
E-|-15b17------12h15-------|
B--------15b17-|
G--------------|
D--------------|
A--------------|
E--------------|
                                                                               
Chorus (2x)

Outro:	(same as intro)




Verse 1:

	In a time when dinosaurs walked the earth                             
	When the land was swamp and caves were home                                 
	In an age when prize possession was fire                        	
To search for landscapes men would roam.
                                 
	Then the tribes they came to steal their fire                                  
	And the wolves they howled into the night                                    
	As they fought a vicious angry battle                           
	to save the power of warmth and light.
        
Chorus 1:
                                
	Drawn by quest for fire                                    
	They searched all through the land                                  
	Drawn by quest for fire                                          
	Discovery of man.
         
Verse 2:
                       
	And they thought that when the embers died away           
	That the flame of life had burnt and died                            
	Didn't know the sparks that made the fire                                   
	Were made by rubbing stick and stone.
                            
	So they ploughed through the forest and swamps of danger                        
	And they fought the cannibal tribes and beasts                                    
	In the search to find another fire                                    
	To regain the power of light and heat.
        
Chorus 2:
                               
	Drawn by quest for fire                                      
	They searched across the land                                        
	Drawn by quest for fire                                          
	Discovery of man.


Текст, аккорды и табулатура для песни "Quest For Fire", исполняет "Iron Maiden".
Используемые в песне аккорды можно найти в разделе Как брать аккорды. Аккорды для шестиструнной гитары. Другие песни можно найти на нашем сайте, воспользовавшись алфавитным указателем вверху страницы.


Слушать онлайн Quest For Fire


Iron MaidenQuest For Fire на Яндекс.Музыке


 
Ошибка в тексте? Выделите ошибку и нажмите Ctrl+Enter