_
 |  |>    /   ||     |/|   /|  |  |  |_  ||
 |  |   /__  | |     |  |   |  |  |/  |_  | |
 
 Bass tab 
 Transcribed by G. Crisan ( [email protected] )
 
 
 *** Many thanks go to Joel Desjardins ([email protected])
     for his help in "debugging" this tablature.
 
 
 
 All textual notes refer to the tab ABOVE it. Any comments, suggestions, 
 or errors refering to the tab below that should be brought to my attention, 
 please e-mail me.
 
 
 Tab explanations
 -----------------------------------------------------
 >   Accent                 |      /   Slide up
 .   Staccatto              |         Slide down
 h   Hammer-on/ pull off    |      :   Repeat
 †   Harmonic               |      ~   slight bend 
 -----------------------------------------------------
 
 
 Murders in the Rue Morgue ( Harris )
  ( From the album " Killers " )      
  
 
                 Harmonic
 |-----------------------------------------|
 
 ----5-----7---12-----------5-----7---12------12-14-16-14-12-11-12-11-12-14---
 -5-----5----7---12-7----5-----5----7---12------------------------------------
 -----------------------------------------------------------------------------
 -----------------------------------------------------------------------------
 
 
 -12-11-12--11-12-14-12-11-9-7--14-16-14-12-11-12-11-12--11-12-14--12-11-9-7--
 -----------------------------------------------------------------------------
 -----------------------------------------------------------------------------
 -----------------------------------------------------------------------------
                           
                           |--------- 2 times ----------|
 -7-7-7-7-7-7-7-7-7-7-7-------------------------------------------------------
 -------------------------------------------.-.---------------------------.-.-
 ------------------------2--0-2-3--2-3-5--5-5-5--3-2-0-2--0-2-3--2-3-5--5-5-5-
 -----------------------------------------------------------------------------
                                       
 -----------------------------------------------------------------------------
 ------------------------------------------------.--------------.-------------
 -3-2-0-2--0-2-3--2-3-2-0------------------------7-7-7-7-7--0-0-0-0-0-0-0-0-0-
 -------------------------3-0-------------------------------------------------
                               Drum cue, then enter (Faster)
 
 -----------------------------------------------------------------------------
 -.---------------.------4-5-4----.--------------.----------.---------------.-
 -4-4-4-4-4--2-3--5-5-5--------5--7-7-7-7-7--0-0-0-0-0-0-0--4-4-4-4-4--0-2--5-
 -----------------------------------------------------------------------------
 
 -----------------------------------------------------------------------------
 -.-4-5-4----.--------------.--------------.--------------.-----4-5-4----.----
 -5-------5--7-7-7-7-7--0-0-0-0-0-0-0-0-0--4-4-4-4-4--2-3-5-5-5-------5--7-7-7
 -----------------------------------------------------------------------------
 
 -----------------------------------------------------------------------------
 ----------.----------.--------------.-.--4-5-4-----.-------5-----------------
 -7-7--0-0-0-0-0-0-0--4-4-4-4-4--0-2-5-5---------5--7-7-5-7---7-7-5-5-5-5-4---
 ---------------------------------------------------------------------------5-
                                                    "Murders in the..."
 
 
 -----------------------------------------------------------------------------
 -.-.-----5-7--9-9-9-9-9-7-5--.-------5-----------------------------------.---
 -7-7-5-7---------------------7-7-5-7---7-7-7-7-7-7-5---7-----5-5-4-0-----7-7-
 -----------------------------------------------------8---5-7---------0-------
 
 -----------------------------------------------------------------------------
 ------------.--------------.---------------.------4-5-4-----.--------------.-
 -7-7-7--0-0-0-0-0-0-0-0-0--4-4-4-4-4--0-0--5-5-5---------5--7-7-7-7-7--0-0-0-
 -----------------------------------------------------------------------------
 
 -----------------------------------------------------------------------------
 --------------.--------------.-.--4-5-4----.--------------.--------------.---
 -0-0-0-0-0-0--4-4-4-4-4--2-3-5-5--------5--7-7-7-7-7--0-0-0-0-0-0-0-0-0--4-4-
 -----------------------------------------------------------------------------
 
 -----------------------------------------------------------------------------
 ------------.-----4-5-4----.--------------.--------------.--------------.-.--
 -4-4-4--0-0-5-5-5-------5--7-7-7-7-7--0-0-0-0-0-0-0-0-0--4-4-4-4-4--2-3-5-5--
 -----------------------------------------------------------------------------
 
 -----------------------------------------------------------------------------
 -4-5-4----.-------5-----------------.-------5-7--9-9-9-9-9-7-5--.-------5----
 -------5--7-7-5-7---7-7-5-5-5-5-4---7-7-5-7---------------------7-7-5-7---7--
 ----------------------------------5------------------------------------------
 
 -----------------------------------------------------------------------------
 ---------------------------------------------------4-5--7-7-7-7-7-7--5-7-9--7
 -7-7-7-7-7-5---7------5-5-4-0-7-------------/7--5---------------------------
 -------------8---5-7----------0----------------------------------------------
                              Drum cue, then enter
                               
 -----------7------------------------------------------------.----------------
 -5---5-5-7---7-5----------4-5--7-7-7-7--7-7--5-7-9-9--7-5---5--5-5-5-5-5-5-4-
 ---7--------------5-7---7---------------------------------7------------------
 -----------------------------------------------------------------------------
 
 -------7---------------------------------------------------------------------
 ---5-7---7-5---.-------5-------------------.-------5-7--9-9-9-9-9-7-5--.-----
 -7-------------7-7-5-7---7--7--5-5-5-5-4---7-7-5-7---------------------7-7-5-
 -----------------------------------------5-----------------------------------
                
 -----------------------------------------------------------------------------
 ---5------------------------------------------.--------------.--------------.
 -7---7-7-7-7-7-7-5---7-----5-5-4-0-7----------7-7-7-7-7--0-0-0-0-0-0-0-0-0--4
 -------------------8---5-7---------0-----------------------------------------
                                      Drum cue
 
 -----------------------------------------------------------------------------
 ---------------.-----4-5-4-----.--------------.--------------.--------------. 
 -4-4-4-4--0-0--5-5-5--------5--7-7-7-7-7--0-0-0-0-0-0-0-0-0--4-4-4-4-4--2-3-5
 -----------------------------------------------------------------------------
 
 -----------------------------------------------------------------------------
 -.--4-5-4----.--------------.--------------.---------------.-----4-5-4----.--
 -5--------5--7-7-7-7-7--0-0-0-0-0-0-0-0-0--4-4-4-4-4--0-0--5-5-5-------5--7-7
 -----------------------------------------------------------------------------
 
 -----------------------------------------------------------------------------
 ------------.--------------.--------------.-.--4-5-4----.-------5------------
 -7-7-7--0-0-0-0-0-0-0-0-0--4-4-4-4-4--2-3-5-5--------5--7-7-5-7---7-7--5-5-5-
 -----------------------------------------------------------------------------
 
 -----------------------------------------------------------------------------
 -------.-------5-7-9-9-9-9-9-7-5--.-------5----------------------------------
 -5-4---7-7-5-7--------------------7-7-5-7---7--7-7-7-7-7-5---7-----5-5-4-0-7-
 -----5-----------------------------------------------------8---5-7---------0-
 
 ----------------.----------.----------.---------------------------------.----
 --------9-9-9-9-7--9-9-9-9-7--9-9-9-9-7---/10-9-7----7---------/9-9-9-9-7----
 --------------------------------------------------10---10-9-7----------------
 -----------------------------------------------------------------------------
 Drum cue  (Guitar solo)
 
 ---------.----------.--------------------------------.-------------9-.-------
 -9-9-9-9-7--9-9-9-9-7--/10-9-7-----7-----------------2--2-2-2-2--0-0-0-------
 --------------------------------10---10-9-7--3-3-3-3-------------------3-3-3-
 -----------------------------------------------------------------------------
 
 ---.-------------9-.-----------.-------------9-.-----------.--.--------------
 ---2--2-2-2-2--0-0-0-----------2--2-2-2-2--0-0-0-----------2--0--0-0-0-0-----
 -3--------------------3-3-3-3----------------------3-3-3-3---------------3-2-
 -----------------------------------------------------------------------------
 
 ------------.--.---------------------------.-------------9-.----------.------
 -.----------2--0--0-0-0-0------.-----------2--2-2-2-2--0-0-0----------2--2-2-
 -0--3-3-3-3----------------3-2-0---3-3-3-3--------------------3-3-3-3--------
 -----------------------------------------------------------------------------
 
 --------9-.-----------.--.--------------------------.--.---------------------
 -2-2--0-0-0-----------2--0--0-0-0-0------.----------2--0--0-0-0-0------.-----
 -------------3-3-3-3-----------------3-2-0--3-3-3-3----------------3-2-0--3-3
 -----------------------------------------------------------------------------
 
 -----------------------------------------------------------------------------
 -----------------------------------------------------------------------------
 -3-3-2-0-2-2-2-2-2--3-3-3-3-2-0-2-2-2-2-2--3-3-3-3-2-0-2-2-2-2-2--3-3-3-3-2-0
 -----------------------------------------------------------------------------
 
 -----.--------.--------------------------------------------------------------
 -.-.-3-.--.-.-5-9-7-5--.-------5-----------------.-------5-7-9-9-9-9-9-7-5--.
 -2-3---3--3-5----------7-7-5-7---7-7-5-5-5-5-4---7-7-5-7--------------------7
 -----------------------------------------------5-----------------------------
 
 -----------------------------------------------------------------------------
 -------5-----------------------------------------------.-------------.-------
 -7-5-7---7--7-7-7-7-7-5---7-----5-5-4-0--7--------/7--7-7-7-7-7-0-0-0-0-0-0-
 ------------------------8---5-7----------0-----------------------------------
                                             Drum cue
 
 -----------------------------------------------------------------------------
 --------.---------------.-----4-5-4----.--------------.--------------.-------
 -0-0-0--4-4-4-4-4--0-0--5-5-5-------5--7-7-7-7-7--0-0-0-0-0-0-0-0-0--4-4-4-4-
 -----------------------------------------------------------------------------
 
 -----------------------------------------------------------------------------
 --------.-.--4-5-4----.--------------.--------------.---------------.-----4-5
 -4--2-3-5-5--------5--7-7-7-7-7--0-0-0-0-0-0-0-0-0--4-4-4-4-4--0-0--5-5-5----
 -----------------------------------------------------------------------------
 
 -----------------------------------------------------------------------------
 -4----.--------------.--------------.--------------.-.--4-5-4----.-------5---
 ---5--7-7-7-7-7--0-0-0-0-0-0-0-0-0--4-4-4-4-4--2-3-5-5--------5--7-7-5-7---7-
 -----------------------------------------------------------------------------
 
 -----------------------------------------------------------------------------
 -----------------.-------5-7-9-9-9-9-9-7-5--.-------5------------------------
 -7--5-5-5-5-4----7-7-5-7--------------------7-7-5-7---7--7-7-7-7-7-5---7-----
 --------------5------------------------------------------------------8---5-7-
 
 -----------------------------------------||
 -----------------------------------------||
 -5-5-4-0-7-----/7-----------------------||
 ---------0-------------------------------||
                    Let note ring a while
 
 
 
 



Текст, аккорды и табулатура для песни "Murders In The Rue Morgue", исполняет "Iron Maiden".
Используемые в песне аккорды можно найти в разделе Как брать аккорды. Аккорды для шестиструнной гитары. Другие песни можно найти на нашем сайте, воспользовавшись алфавитным указателем вверху страницы.


Слушать онлайн Murders In The Rue Morgue


Iron MaidenMurders In The Rue Morgue на Яндекс.Музыке


 
Ошибка в тексте? Выделите ошибку и нажмите Ctrl+Enter