Вступление-1:

6--3--5----13-12-13----------------13-12-13--12-------------|
|--3-3-3-----------------------------------|-11------10-----------------------------|
-------------------------------|-----12---------------------------------|
---------------------12-12-12---------------------12-12-12--|
------------------------------------------------------------|
------------------------------------------------------------|
                                                                                
-----13-12-13-----------------------------------------|
|--11------10------------------------|--11------10------------------11-10-11--|
|------12----------------------------|------12--------10-9-10--9--------------|
---------------12-12-12-------------------------------|
------------------------------------------------------|
------------------------------------------------------|

Вступление -2: повторить два раза.


                                                        
|-----5--6-----5-----------|-----5--6-----5--------|
8-----6--8--5--8-----6--5--|
|--7-----------------------|--7--------------------|
---------------------------|
---------------------------|
---------------------------|
                                                                         
|-----5--6-----5-----------------------|
8-----6--8--5--|-----6--8--6--8--5-----|
|--7-----------------------|--7-----------------7--|
---------------------------|
---------------------------|
---------------------------|


Проигрыш -1: повторить два раза.

-------------------------------------------|
-------------------------------------------|
---------5----------------------------5----|
|-----7--7--5-7-8--8-3-7-5---------7--7--5-7-8--8-3-7--|
|--5--5--5--3-5-6--6---5-3-7----5--5--5--3-5-6--6---5--|
|--3-----------------------5----3----------------------|
   


                                                                          
-------------------------------------------|
-------------------------------------------|
---------5---------------------------------|
|-----7--7--5-7-8--8-3-7-5--------5--5------5-5--------|
|--5--5--5--3-5-6--6---5-3-7---7--3--3--7-8-3-3-8-7-5--|
|--3-----------------------5---5--------5-6-----6-5-3--|


Куплет:

-----------------------------------------------|
-----------------------------------------------|
|--7---9-10------12--12--10--10-----|-------7---9-10-------12--12--10--|
|--7---9-10--12--12--12--10--10-----|-------7---9-10--12---12--12--10--|
|--5---7-8---12--10--10--8---8------|-------5---7-8---12---10--10--8---|
-10---------------------------10---------------|
   Mother Russia how are you sleeping?    Middle winter cold winds blow
                                                            
------------------------------------------------------------|
------------------------------------------------------------|
|--7---9-10------12--12--10--10--------------5---7--9--5---12--12-------|
|--7---9-10--12--12--12--10--10--------------5---7--9--5---12--12---12--|
|--5---7-8---12--10--10--8---8---------------3---5--7--3---10--10---12--|
-10-----------------------------------------------------10--|
   From the trees the snowflakes drifting    swirling round like ghosts in the snow

                                                                
--------------------------------------------------|
--------------------------------------------------|
|--10---12-14--10-----------10-------10---12-14--10-----------|
|--10---12-14--10--8--8--7--10-------10---12-14--10--8--8--7--|
|--8----10-12--8---8--8--7--8--------8----10-12--8---8--8--7--|
-------6--6--5---------------------------6--6--5--|
   Mother Russia poetry majestic     tells the time of a great empire

                                                                                
------------------------------------------------------|
------------------------------------------------------|
|--7---9-10--7--12--12--10--------------------9------12--12--7----|
|--7---9-10--7--12--12--10--12--------10---12-9--10--12--12--7----|
|--5---7-8---5--10--10--8---12--------10---12-7--10--10--10--5----|
----------------10--------8----10----8----------------|
   Turning round the old man ponders  reminiscing an age gone by
                                                                        
Проигрыш -1. (повторить два раза)

Проигрыш -2: (повторить два раза):
------------------------------------------|
------------------------------------------|
------------------------------------------|
|------5-5-6-6-3-3-5-5-1-1-3-3------|------5-5-6-6-3-3-5-5-1-1----|
|--3-3-------------------------5-5--|--3-3---------------------5--|
------------------------------------------|

                                                                
------------------------------------------|
------------------------------------------|
------------------------------------------|
|------5-5-6-6-3-3-5-5-1-1-3-3------|------1-1-3-3-1-1-3-3--------|
|--3-3-------------------------5-5--|--3-3-----------------5-5-3--|
------------------------------------------|

Проигрыш -3:

------7----5---------|--8--8--7--5-------------|
-5--------------7-------8----------|
------4----2---------|--5--5--4--2-------4--7--|
-2--------------4-------5----------|
|--2----5--------------------------------2--5--|
-----------------------------------|


                                                                          
|-------7----5---------|--8--8--7--5-------------|-------7----5---------|
|--5--------------7-------8----------------7----|
|-------4----2---------|--5--5--4--2-------4--7--|--5----4----2---------|
|--2--------------4-------5----------------4----|
-------------------2--5--|--3-------------------|
------------------------------------|


                                                                               
|--8--8--7--5--10--8--7--5--|-------7----5---------|--8--8--7--5-----------|
----------------|--5--------------7-------8--------|
|--5--5--4--2--7---5--4--2--|-------4----2---------|--5--5--4--2-----4--7--|
----------------|--2--------------4-------5--------|
---------------------------------2--5--|
---------------------------------------|


                                                                         
|-------7----5---------|--8--8--7--5-------------|-------7----5---------|
|--5--------------7-------8----------|--5--------------7----|
|-------4----2---------|--5--5--4--2-------4--7--|-------4----2---------|
|--2--------------4-------5----------|--2--------------4----|
-------------------2--5-------------|
------------------------------------|

                                                                               
|--8--8--7--5-------------|-------7----5-------|--8--8--7--5--10--8--7--5--|
---8----------------7------------------|
|--5--5--4--2-------4--7--|--5----4----2-------|--5--5--4--2--7---5--4--2--|
---5----------------4------------------|
--------2--5--|--3---------------------------------|
---------------------------------------|


                                                                            
|-------7----5---------|--8--8--7---------------|
|--5--------------7----10--8--------|
|-------4----2---------|--5--5--4---------------|
|--2--------------4----7---5--------|
------------------------|
------------------------|

Теперь соло, которое увы, я осилить не смог.

Второй куплет. (Те же рифы, что и первый куплет).

И заканчивается все Вступлением-2.

Текст:

Mother Russia how are you sleeping? 
Middle winter cold winds blow
From the trees the snowflakes drifting, 
Swirling round like ghosts in the snow
Mother Russia poetry majestic, 
Tells the time of a great empire
Turning round the old man ponders, 
Reminiscing an age gone by 

Mother Russia, dance of the Tsars, 
Hold up your heads, be proud of what you are
Now it has come, freedom at last, 
Turning the tides of history and your past
Mother Russia, dance of the Tsars, 
Hold up your heads, remember who you are
Can you release the anger the grief, 
Can you be happy now your people are free


Текст, аккорды и табулатура для песни "Mother Russia", исполняет "Iron Maiden".
Используемые в песне аккорды можно найти в разделе Как брать аккорды. Аккорды для шестиструнной гитары. Другие песни можно найти на нашем сайте, воспользовавшись алфавитным указателем вверху страницы.


Слушать онлайн Mother Russia


Iron MaidenMother Russia на Яндекс.Музыке


 
Ошибка в тексте? Выделите ошибку и нажмите Ctrl+Enter