Вступление: медленно играть.

------------------------------|
0-1-3--1-------|----------0-1-3-3--1------|
|---------2-2-2-2--2-------|--------2-2-2-2-2--2------|
|-------2-2-2-2-2--2-------|-----2--2-2-2-2-2--2------|
|----0------------------------------------|
|-0-------------------0~---|--1-------------------1~--|


                                                     
-----------------------------|
---3----------|----------0-1-3-1----0~---|
0--2----0--0--|--------2-2-2-2-2----2~---|
|--------2-----0----2--0--|-----2----2-2-2-2----2~---|
--------3--2--|--0-----------------------|
|--0-------------------------------------|


                                                        
--------------------------------|
-0-1-3--1-------|----------0-1-3-3--1-------|
|----------2-2-2-2--2-------|--------2-2-2-2-2--2-------|
|--------2-2-2-2-2--2-------|-----2--2-2-2-2-2--2-------|
|-----0-------------------------------------|
|--0-------------------0~---|--1-------------------1~---|


                                                         
---------------------------------|
---3----------|----------0-1-3-3-3-1-1-1--0~-|
0--2----0--0--|--------2-2-2-2-2-2-2-2-2--2~-|
|--------2-----0----2--0--|-----2----2-2-2-2-2-2-2-2--2~-|
--------3--2--|--0------------------------0~-|
|--0-----------------------------------------|

Проигрыш-1: 

8-9-11-9-8-----------8------------|
|--9--9--11------------9--8--9--|--8--9--11-----11--9--8--|
----------------------------------|
----------------------------------|
----------------------------------|
----------------------------------|


                                                            
8-9-11-9-8-----------8--------------|
|--9--9--11------------9--8--9--|--8--9--11-------11--9--8--|
------------------------------------|
------------------------------------|
------------------------------------|
------------------------------------|


                                                            
8-9-11-9-8-----------8--------------|
|--9--9--11------------9--8--9--|--8--9--11-------11--9--8--|
------------------------------------|
------------------------------------|
------------------------------------|
------------------------------------|


                                                                          
8-9-11-9-8----------|
|--9--9--11------------9--8--9~-|
--------------------|
--------------------|
--------------------|
--------------------|

Проигрыш-3
-------------------------------|
|-----13-9----11-9-------13-9----11-9------|
|--10------10------10-10------10-------10~-|
-------------------------------|
-------------------------------|
-------------------------------|


                                       
---------------------------|
|-----13-9----11-9-9-8----11-9-8-------|
|--10------10----------10--------10~---|
---------------------------|
---------------------------|
---------------------------|


                                           
-------------------------------|
|-----13-9----11-9-------13-9----11-9------|
|--10------10------10-10------10-------10~-|
-------------------------------|
-------------------------------|
-------------------------------|

                                                                 
---------------------------|
|-----13-9----11-9-9-8----11-9-8-------|
|--10------10----------10--------10~---|
---------------------------|
---------------------------|
---------------------------|


Куплет:

   F5                                        
-------------------------------------------------| 
-------------------------------------------------|
|--10--10-----10---10--10--10-----10---10-||-10--10-----10---10--10--10-----10---10--|
|--10--10-----10---10--10--10-----10---10-||-10--10-----10---10--10--10-----10---10--|
|--8---8--8-8-8--8-8---8---8--8-8-8--8-8--||-8---8--8-8-8--8-8---8---8--8-8-8--8-8---|
-------------------------------------------------|
   When    you  see   familiar    faces       But You don´t know where they´re from 

  D#5
------------------------------------------------|
------------------------------------------------|
|--8---8------8----8---8---8------8----8-||--8---8------8----8---8---8------8----8--|
|--8---8------8----8---8---8------8----8-||--8---8------8----8---8---8------8----8--|
|--6---6--6-6-6--6-6---6---6--6-6-6--6-6-||--6---6--6-6-6--6-6---6---6--6-6-6--6-6--|
------------------------------------------------|
   Could    you  be     wrong                  

   F5
-------------------------------------------------|
-------------------------------------------------|
|--10--10-----10---10--10--10-----10---10-||-10--10-----10---10--10--10-----10---10--|
|--10--10-----10---10--10--10-----10---10-||-10--10-----10---10--10--10-----10---10--|
|--8---8--8-8-8--8-8---8---8--8-8-8--8-8--||-8---8--8-8-8--8-8---8---8--8-8-8--8-8---|
-------------------------------------------------|
   When you´ve been particular places          that you know you never been before
 
  D#5
------------------------------------------------|
------------------------------------------------|
|--8---8------8----8---8---8------8----8--||-8---8------8----8---8---8------8----8--|
|--8---8------8----8---8---8------8----8--||-8---8------8----8---8---8------8----8--|
|--6---6--6-6-6--6-6---6---6--6-6-6--6-6--||-6---6--6-6-6--6-6---6---6--6-6-6--6-6--|
------------------------------------------------|
   Can     you    be      sure              

  D#7
-------------------------------------------------|
-------------------------------------------------|
|--8---8------8----8---8---8------8----8--||-10--10-----10---10--10--10-----10---10--|
|--8---8------8----8---8---8------8----8--||-10--10-----10---10--10--10-----10---10--|
|--4---4--4-4-4--4-4---6---6--6-6-6--6-6--||-8---8--8-8-8--8-8---8---8--8-8-8--8-8---|
-------------------------------------------------|
   Cause       you     know       this       has        happened     before

------------------------------------------------|
------------------------------------------------|
|--8---8------8----8---8---8------8----8--||-10--10-----10---10--8---8------8----8--|
|--8---8------8----8---8---8------8----8--||-10--10-----10---10--8---8------8----8--|
|--4---4--4-4-4--4-4---6---6--6-6-6--6-6--||-8---8--8-8-8--8-8---6---6--6-6-6--6-6--|
------------------------------------------------|
   And  you    know    that   this           moment   in   time   is    for real 

------------------------------|
------------------------------|
|--8---8------8----8---8---8------8----8--|
|--8---8------8----8---8---8------8----8--|
|--4---4--4-4-4--4-4---6---6--6-6-6--6-6--|
------------------------------|
   And you  know  when you feel  deja vu 

Проигрыш-2: - повторить два раза.

--------------------------------------|
|--------13--9------11--9------|--------13--9------11--9------|
|--10-----------10---------10--|--10-----------10---------10--|
--------------------------------------|
--------------------------------------|
--------------------------------------|
                                                                            
--------------------------------------|
|--------13--9------11--9------|--------13--9------11--9------|
|--10-----------10---------10--|--10-----------10---------10~-|
--------------------------------------|
--------------------------------------|
--------------------------------------|


Припев:

   F5              D#5
-----------------------------------------|
-----------------------------------------|
|--10---------------8-----------|----10----------8-----8-8-8-10--|
|--10---------------8-----------|----10----------8-----8-8-8-10--|
|--8----------------6-----------|----8-----8-8-8-6-----6-6-6-8---|
-----------------------------------------|
 Feel like I´ve been here before  Feel like I´ve been here before 


                                               C#5
-----------------------------------------|
-----------------------------------------|
|--10---------------8-----------|----10--------6-------8---------|
|--10---------------8-----------|----10--------6-------8---------|
|--8----------------6-----------|----8---------4-------6---------|
-----------------------------------------|
 Feel like I´ve been here before  Feel like I´ve been here before 


Проигрыш-1.

Проигрыш-4:

---------------------8----8-9--|--8-----------------------|
----------8-9-8-9-11---11------|----11-9-8-9-8------------|
8-10-8-10--------------------------10-8-------|
|--11-10-11-----------------------------------------10----|
----------------------------------------------|
----------------------------------------------|

---------------------8----8-9--|--8-----------------------|
----------8-9-8-9-11---11------|----11-9-8-9-8------------|
8-10-8-10--------------------------10-8-------|
|--11-10-11-----------------------------------------10----|
----------------------------------------------|
----------------------------------------------|

Проигрыш-5:

--------------------------------------------|
--------------------------------------------|
|--6-6-6-6---6---6-6---6---6-6-8--|--6-6-6-6---6---6-6---6---6-6-8--|
|--6-6-6-6---6---6-6---6---6-6-8--|--6-6-6-6---6---6-6---6---6-6-8--|
--------------------------------------------|
--------------------------------------------|

------------------------------------------------------------------|
------------------------------------------------------------------|
|--10-10-10-10---10---10-10---10---10-10-13--|--10-10-10-10---10---10-10---10---10-10-13--|
|--10-10-10-10---10---10-10---10---10-10-13--|--10-10-10-10---10---10-10---10---10-10-13--|
------------------------------------------------------------------|
------------------------------------------------------------------|

------------------------------------------------|
------------------------------------------------|
|--6-6-6-6----6---6-6---6----6-6-8--|--6-6-6-6----6---6-6---6----6-6-8--|
|--6-6-6-6----6---6-6---6----6-6-8--|--6-6-6-6----6---6-6---6----6-6-8--|
------------------------------------------------|
------------------------------------------------|

-------------------------------------------------------|
|--9--9--9--9----8---8-8---8---8-9--8--|--9--9--9--9----8---9--8---8---8----8--|
|--8--8--8--8----8---8-8---8---8-8--8--|--8--8--8--8----8---8--8---8---8-10-8--|
|--10-10-10-10---8---8-8---8---8-10-8--|--10-10-10-10---8---10-8---8---8-8--8--|
-------------------------------------------------------|
-------------------------------------------------------|

Проигрыш-3. Повторить два раза.

Куплет 2: (под те же аккорды)

Ever had a conversation 
That you realise you´ve had before 
Isn´t it strange 

Have you ever talked to someone 
And you feel you know what´s coming next 
It feels pre-arranged 

´Cause you know that you´ve heard it before 
And you feel that this moment in time is for surreal 
´Cause you know when you feel deja vu 

Проигрыш-2.

Припев.

Проигрыш-1.
Проигрыш-3. (Два раза).

Да, еще есть соло перед вторым куплетом, 

На мой взгляд, там три чередующихся такта:

|--5--4----2-5-4-5--4--2----|--5--4--0-2-5-4-5--4--2----|--5--4----2-5-4-5--4-------|
|--------5----------------------------------|--------5-------------5----|
------------------------------------------------|
------------------------------------------------|
------------------------------------------------|
------------------------------------------------|

Или что то похожее.


Текст, аккорды и табулатура для песни "Deja Vu", исполняет "Iron Maiden".
Используемые в песне аккорды можно найти в разделе Как брать аккорды. Аккорды для шестиструнной гитары. Другие песни можно найти на нашем сайте, воспользовавшись алфавитным указателем вверху страницы.


Слушать онлайн Deja-Vu


Iron MaidenDeja-Vu на Яндекс.Музыке


 
Ошибка в тексте? Выделите ошибку и нажмите Ctrl+Enter