www.interpol.int/
-------------------------------------------------------------------------------
			     obstacle 1 - Interpol
-------------------------------------------------------------------------------

Tabbed By : phfated		
e-mail: mer

Tuning: standard EADG
not the whole song, but more than the intro play with pick


its pretty close, maybe more repititions
G|17-17-17-19-19-19-17-17---------------------------------------------|
D|--------------------------------------------------------------------|
A|--------------------------------------------------------------------| 
E|--------------------------------------------------------------------|
(x4)
G|17-19-17-17-19-17-17-19-17-19-17-19-17------------------------------|
D|--------------------------------------------------------------------|
A|--------------------------------------------------------------------|
E|--------------------------------------------------------------------|

G|--------------------------10-10-------------------------------------|
D|--------10-------------10-------------------------------------------|
A|----8-8------------8-8----------------------------------------------|
E|8-8--------5555—8-8--------------5555-------------------------------|



| /  slide up
|   slide down
| h  hammer-on
| p  pull-off
| ~  vibrato
| +  harmonic
| x  Mute note


Текст, аккорды и табулатура для песни "Obstacle 1", исполняет "Interpol".
Используемые в песне аккорды можно найти в разделе Как брать аккорды. Аккорды для шестиструнной гитары. Другие песни можно найти на нашем сайте, воспользовавшись алфавитным указателем вверху страницы.


Слушать онлайн Obstacle 1


InterpolObstacle 1 на Яндекс.Музыке


 
Ошибка в тексте? Выделите ошибку и нажмите Ctrl+Enter