Interpol - C'mere (Antics)

tabbed by
Les Swensen / [email protected]

Intro
 e--------------------------------------|
 B--------------------------------------|
 G--------------------------------------|
 D-10--10-10---10--10-10---7--7-7---7---|
 A-8---8--8----8---8--8----5--5-5---5---|
 E--------------------------------------|

Verse 1
             x4        x4
 e-------------|---------|
 B-------------|---------|
 G-------------|---------|
 D-10-10-10-10-|-7-7-7-7-|
 A-8--8--8--8--|-5-5-5-5-|
 E-------------|---------|
                                  x1        x4
 e----------------------------------|---------|
 B----------------------------------|---------|
 G----------------------------------|---------|
 D-1010--101010--101010--1010101010-|-7-7-7-7-|
 A-8-8---8-8-8---8-8-8---8-8-8-8-8--|-5-5-5-5-|
 E----------------------------------|---------|

 e-5-5---5-5-5---5-5-5---5-5-5-5-|
 B-5-5---5-5-5---5-5-5---5-5-5-5-|
 G-5-5---5-5-5---5-5-5---5-5-5-5-|
 D-7-7---7-7-7---7-7-7---7-7-7-7-|
 A-------------------------------|
 E-------------------------------|

 e-3-3---3-3-3---3-3-3---3-3-3-3-|
 B-3-3---3-3-3---3-3-3---3-3-3-3-|
 G-3-3---3-3-3---3-3-3---3-3-3-3-|
 D-5-5---5-5-5---5-5-5---5-5-5-5-|
 A-------------------------------|
 E-------------------------------|

Verse 2 (Like Verse 1, but with slight variation on last chords + Guitar2 fill.)

 Gtr2. fill:
 e-8-------8-------8----8-------8-------8-----|
 B---10-10---10-10---10---10-10------10---10--|

 e---8------8----8---10-------8------8----|
 B-8-----10---10--------10-10-----10---10-|

 e-8-------8-------8----8-------8-------8-----|
 B---10-10------10---10---10-10------10---10--|

 e-8-------8-------8----10-------8-------8----|
 B---10-10---10-10---10----10-10---10-10---10-|

 Gtr1. chords:
 e-5-5---5-5-5---5-5-5---5-5-5-5-|
 B-5-5---5-5-5---8-8-8---5-5-5-5-|
 G-5-5---5-5-5---5-5-5---5-5-5-5-|
 D-7-7---7-7-7---7-7-7---7-7-7-7-|
 A-------------------------------|
 E-------------------------------|

 e-3-3---3-3-3---3-3-3---3-3-3-3-|
 B-3-3---3-3-3---6-6-6---3-3-3-3-|
 G-3-3---3-3-3---3-3-3---3-3-3-3-|
 D-5-5---5-5-5---5-5-5---5-5-5-5-|
 A-------------------------------|
 E-------------------------------|

Bridge 1
                                    x2
 D-7~7~7~7|~7~7~7~7|~7~7~7~7|~7~7~7~8|

 D-7~7~7~7|~7~7~7~7|~7~7~7~7|~7~7~7~7|

Verse 3 (Like Verse 2, but with variatons on Guitar2 fill and rhythm on first chords)

 Gtr2. fill
 e-8-------8-------8----8-------8-------8-----|
 B---10-10------10---10---10-10---10-10---10--|

 e-10------8-------8----10-------8-------8----|
 B---10-10------10---10----10-10---10-10---10-|

 e-8-------8-------8----8-------8-------8-----|
 B---10-10------10---10---10-10---10-10---10--|

 e-8-------8-------8----10-------8-------8----|
 B---10-10---10-10---10----10-10---10-10---10-|

 Gtr1. rhythm first chords:
             X4                  X2
 e-------------|-------------------|
 B-------------|-------------------|
 G-------------|-------------------|
 D-10-10-10-10-|-7-7-7-7-77--(7-7)-|
 A-8--8--8--8--|-5-5-5-5-55--(5-5)-|
 E-------------|-------------------|
                           x2        x4
 e---------------------------|---------|
 B---------------------------|---------|
 G---------------------------|---------|
 D-10-10-10-10-1010--(10-10)-|-7-7-7-7-|
 A-8--8--8--8--8-8---(8--8-)-|-5-5-5-5-|
 E---------------------------|---------|

Bridge 2
                                    x3
 D-7~7~7~7|~7~7~7~7|~7~7~7~7|~7~7~7~8|

 D-7~7~7~7|~7~7~7~7|~7-

Chorus
                         x4
 e-----------------5---5-5-|
 B-----------------5---5-5-|
 G-----------------5---5-5-|
 D-----------------7---7-7-|
 A----8-8-5-5--------------|
 E-6----------0-5----------|

Verse 4
             X4        X4
 e-------------|---------|
 B-------------|---------|
 G-------------|---------| X2 (add Gtr2. fill second time)
 D-10-10-10-10-|-7-7-7-7-|
 A-8--8--8--8--|-5-5-5-5-|
 E-------------|---------|

 e-5-5---5-5-5---5-5-5---5-5-5-5-|
 B-5-5---5-5-5---8-8-8---5-5-5-5-|
 G-5-5---5-5-5---5-5-5---5-5-5-5-|
 D-7-7---7-7-7---7-7-7---7-7-7-7-|
 A-------------------------------|
 E-------------------------------|

 e-3-3---3-3-3---3-3-3---3-3-3-3-|
 B-3-3---3-3-3---6-6-6---3-3-3-3-|
 G-3-3---3-3-3---3-3-3---3-3-3-3-|
 D-5-5---5-5-5---5-5-5---5-5-5-5-|
 A-------------------------------|
 E-------------------------------|

Bridge 3
                                    x3
 D-7~7~7~7|~7~7~7~7|~7~7~7~7|~7~7~7~8|

 D-7~7~7~7|~7~7~7~7|~7~7~7~7|~7~7~7~7|

Chorus
                         x4
 e-----------------5---5-5-|
 B-----------------5---5-5-|
 G-----------------5---5-5-|
 D-----------------7---7-7-|
 A----8-8-5-5--------------|
 E-6----------0-5----------|

Outro (3 Guitars at once. One plays the chorus. The other two: )

 Gtr2.
 D-7-7-7-7-7-7-7-7-9-9-9-9-10-10-10-10-|
 A-5-5-5-5-5-5-5-5-7-7-7-7-8--8--8--8--|

 D-7-7-7-7-7-7-7-7-5-5-5-5-5-5-5-5-|
 A-5-5-5-5-5-5-5-5-3-3-3-3-3-3-3-3-|

 D-7-7-7-7-7-7-7-7-9-9-9-9-10-10-10-10-|
 A-5-5-5-5-5-5-5-5-7-7-7-7-8--8--8--8--|

 D-7-7-7-7-7-7-7-7-5-|
 A-5-5-5-5-5-5-5-5-3-|

 Gtr3.
 G-14-14-14-12-12-12-14-14-16-16-16-16-17-17-17-17-|
 
 G-14-14-14-12-12-12-14-14-12-12-12-12-10-10-9-9---|
 
 G-14-14-14-12-12-12-14-14-16-16-16-16-17-17-17-17-|

 G-14-14-14-12-12-12-14-14-12-|

end

.....
©Interpol 2004


Текст, аккорды и табулатура для песни "Cmere", исполняет "Interpol".
Используемые в песне аккорды можно найти в разделе Как брать аккорды. Аккорды для шестиструнной гитары. Другие песни можно найти на нашем сайте, воспользовавшись алфавитным указателем вверху страницы.


 
Ошибка в тексте? Выделите ошибку и нажмите Ctrl+Enter